Eres Mi Amigo Fiel, Coalo Zamorano (tablatura) (ver 2)

Autor: Anónimo | 31570 visualizaciones

ESTA CANCION TANTO COMO LA GUITARRA ELECTRICA Y ELECTROACUSTICA VAN
HACIENDO ACORDES EN DIFERENTES POSICIONES!

Intro:   E - Bm7 - F#m7 - E
             E -  Bm7 - F#m7 - D
e---------------12---------------12-------------------------
B---10-9------------10--9------------10-9-------------------
G---------9-----------------9----------------9--------------
D-----------------------------------------------------------
A-----------------------------------------------------------
E-----------------------------------------------------------
Se repite esto 4 veces y luego 3 veces mas y en lo
último se toca esto:
e-----------------12----------12----------------------------
B---10-9--------------9-10----------10--9-9--12-12----------
G-----------9---------------9-------------------------------
D-----------------------------------------------------------
A-----------------------------------------------------------
E-----------------------------------------------------------


   Emaj9 (Pausa . . . . . . . . )C#m7
//Quien soy yo para que en mi tu pienses
       F#m7           E
Y que escuches, mi clamor
  Emaj9                      C#m7
Y es verdad lo que tu hoy me dices
        F#m7       D      (E)
Que me amas, me asombras// Segunda vuelta se hace pausa otra vez

Coro:
  E
//Eres mi amigo fiel
C#m7
Eres mi amigo fiel
F#
Eres mi amigo fiel
          E     E(add9)
Tu amigo soy//

Verso:
            D              D(add9)F#m7-Bm7-E-D-A

. . . me asombras // . . me asombras

Coro:


Puente: (Gtr Solo) |  A | E/G# | F#m7 | A | x1
e------------------------------12-12-------------14--16-17-
B-9s10------------------9s10--------12s14--16-17-----------
G-------11--9-----9----------------------------------------
D--------------11------------------------------------------
A----------------------------------------------------------
E----------------------------------------------------------


e-17--16-14-----12---12--12--------------------------------
B-------------12---11---9----9h10--------------------------
G---------------------------------11--9--------------------
D---------------------------------------11--9----------9-9-
A---------------------------------------------12-11-12-----
E----------------------------------------------------------

      A           E/G#
///Majestuoso, poderoso
F#m7      A    B7sus4 (para pasar A el coro)
Tu amigo soy///


Coro:


Final: |  A | E/G# | F#m7 | E |
Calificar esta versión:
Aviso: Este fichero es trabajo propio de su transcriptor y representa su interpretación personal de la canción. El material contenido en esta página es para exclusivo uso privado, por lo que se prohibe su reproducción o retransmisión, así como su uso para fines comerciales.
Más versiones de Eres Mi Amigo Fiel, Coalo Zamorano
Eres Mi Amigo Fiel
acordes
Eres Mi Amigo Fiel
tablatura
Eres Mi Amigo Fiel (ver 2)
tablatura
Eres Mi Amigo Fiel
bajo
Eres Mi Amigo Fiel
bateria
Descubre más canciones de Coalo Zamorano