Digo Sí, Coalo Zamorano (tablatura)

Autor: Anónimo | 31230 visualizaciones

Aqui les van los arreglos de esta cancion; hay algunos arreglos que no
puse aqui por cuestion de tiempo, solo inclui los mas notorios.
Espero que les sea de ayuda.





***La intro de esta cancion va asi:

 guitarra-1:
D|-----12--12--15-12v-|--12--12--15-12v-|--12--12--15-12v-|15-14v-12|
A|14-14--14--14-------|14--14--14-------|14--14--14-------|
E|--------------------|-----------------|-----------------|

D|---12--12--15-12v-|--12--12--15-12v-|--12--12---------|
A|-14--14--14-------|14--14--14-------|14--14--15--12v--|
E|------------------|-----------------|-----------------|
..........................................................................
 bajo: (ojo aqui, escuchen bien donde se hacen estos cortes)
D|--------------------|------------------|------------------|------------|
A|5--5------2---------|5--5----2-----/12-|5--5----2---------|2---2-------|
E|-------------5-5--3-|----------5-5-----|-----------5-5--3-|--------5-3-|
  ^--^------^----^--^-|^--^----^---^--^--|^--^----^----^--^-|^---^---^-^-|
 O|T | ROS  | INS| T|R |U |MEN |OS |  |   |  |    |    |  |  |   |   | |
 |D--D-----Bm----A--G-|D--D---Bm7--A--A--|D--D----Bm---A--G-|Bm7-Bm7-A-G2|
..........................................................................
 bateria:                                                   termina:
 C|X-------|--------|--------|--------|                    C|--------x-X-|
Hh|--x-X-x-|X-x-X-x-|X-x-X-x-|X-x-X-x-|                   Hh|--X---------|
 T|----o---|----o---|----o---|----o---|                    T|--o---Xx----|
 B|O---O---|--------|O-----O-|O---O---|3veces              B|O---O---O-O-|
  |1 + 2 + |3 + 4 + |1 + 2 + |3 + 4 + |                     |1+2+3+4+1+2+|


  C=CRASH
 C2=CRASH 2                        /=SLIDE
 Hh=HIGH-HAT/CONTRAS               v=VIVRADO
  T=TAROLA-(Xx=flam)               +=tremolo pick(se toca la nota
  B=BOMBO                             muy rapido hacia arriba y abajo)
Tm1=tom uno                        .=tocar la nota y cortar
Tm2=tom dos                        o=tocar la nota y dejar sonando
TmP=tom DE PISO
_________________________________________________________________________

VERSO:(bateria)

Eres rey de mi corazon...                  ...tuyo soy
      ^                                             ^
    C|X-------|--------|--------|--------|        C|--------|-----X-X|
   Hh|--x-X-x-|X---X---|X-x-X-x-|X-x-X-x-|       Hh|X-x-X-x-|X-------|
    T|----o---|--o---o-|----o---|----o---|        T|----o---|--------|
    B|O-------|O-------|O-------|O-------|3veces  B|O-------|O----O-O|
     |1 + 2 + |3 + 4 + |1 + 2 + |3 + 4 + |      Tm2|--------|--O-----|
                                                TmP|--------|---O----|
                                                   |1 + 2 + |3 + 4 + |
De ti nunca me ilvidare...   ...con todo mi ser
       ^                                     ^ termina:
     C|X-------|--------|--------|--------| |--------|--------|--------|
    Hh|--x-X-x-|X---X---|X-x-X-x-|X-x-X-x-| |X-x-X-x-|X---X---|X-------|
     T|----o---|--o---o-|----o---|----o---| |----o---|--o---o-|--oo-o--|
     B|O-------|O-------|O-------|O-------| |O-------|O-------|O-------|
      |1 + 2 + |3 + 4 + |1 + 2 + |...    Tm1|--------|--------|----O---|
                   3 veces               Tm2|--------|--------|------O-|
                                         TmP|--------|--------|-------O|
                                            |1 + 2 + |3 + 4 + |
________________________________________________________________________

***El precoro es bastante simple, solo hay dos detalles:

-la primera vez q se hace el precoro termina asi:

   Mi corazon,     vivira porTi.  DigoSi a tu voluntad...
  Em7      G        D         A.       D
 C|--------|--------|--------|X.------|X-------|            .=cortar
C2|--------|--------|--------|--------|X-------|
Hh|X-x-X-x-|X-x-X-x-|X-x-X-x-|--------|--x-X-x-|<(bateria)
 T|----o---|----o---|----o---|--------|----o---|
 B|O-O-----|O-O-----|O-O-----|O-------|O-------|
  |1 + 2 + |3 + 4 + |1 + 2 + |3 + 4 + |1 + 2 + |...

-la segunda vez acaba asi:

   Mi corazon,     vivira porTiiiiiiiii.   DigoSi a tu voluntad...
  Em7      G        D         A        D.       D
 C|--------|--------|--------|--------|--------|X-------|
C2|--------|--------|--------|--------|--------|X-------|
Hh|X-x-X-x-|X-x-X-x-|X-x-X-x-|X-X-X-X-|Xx------|--x-X-x-|
 T|----o---|----o---|----o---|--------|--------|----o---|
 B|O-O-----|O-O-----|O-O-----|O-O-O-O-|O-------|O-------|
  |1 + 2 + |3 + 4 + |1 + 2 + |3 + 4 + |1 + 2 + |1 + 2 + |...



________________________________________________________________________

***El coro lleva tmb un arreglo q va asi:

 Guitarra:
 D                   A                 Em7  y   D
 <======2X=========> <========2X=======><=======4X========>
e|-----------------| |-----------------||-----------------|
B|-----------------| |-----------------||-----------------|
G|10v-10-9-7---7-7-| |12v-12-9-7---7-7-||10v-10-9-7---7-7-|
D|-----------9-----| |-----------9-----||-----------9-----|
                                          ^(esta parte se hace
                                           1 vez c/Em7 y se repite c/D)

________________________________________________________________________

***El puente va asi:

 Guitarra:
 Bm           A              G            Em7
D|----0---3-0-|--------5-3---|--------3-0-|--------5-3---|
A|2+2---2-----|0+0-5-0-----5-|----5-------|----5-------5-|3X
E|------------|--------------|3+3---3-----|0+0---0-------|


***la primera vez toca solo la guitarra

***en la segunda vez entra la bateria y bajo asi:

bajo: Bm       A        G       Em7
     D|--------|--------|--------|--------|   .=corta la nota
     A|2.2o----|0.0o----|--------|--------|   o=sostiene la nota
     E|--------|--------|3.3o----|0.0o----|
bateria:
 Hh|--|XxX-X-X-|XxX-X-X-|XxX-X-X-|XxX-X---|
  T|--|--------|------o-|--------|------Xx|
  B|--|O-O-O-O-|O-O-O-O-|O-O-O-O-|O-O-OO--|
TmP|Xx|--------|--------|--------|--------|
+ 4 + |1 + 2 + |3 + 4 + |1 + 2 + |3 + 4 + |

***la tercera vez q se repite la forma entran tmb las voces y otros
instrumentos tocando suave:

bajo:
Me rindo a ti yo digo si...
    ^
    Bm       A        G       Em7
   D|--------|--------|--------|--------|
   A|22222222|00000000|--------|--------|
   E|--------|--------|33333333|00000000|
bateria:
   C|X-------|--------|--------|--------|
  Hh|--x-X-x-|X-x-X-x-|X-x-X-x-|X-x-X-x-|
   T|----o---|----o---|----o---|----o---|
   B|O---O---|O---O---|O---O---|O---O---|

***despues de esto la guitarra deja de tocar la forma y solo marca
los acordes:Bm-A-Em7

***luego se canta x segunda vez esa linea y se canta mas fuerte
    mietras la guitarra hace esto:
guitarra:
 Bm                     A
D|------12----12----12--|------12-----17-17-15V-|
A|14-14----14----14-----|12-12----12------------|
E|----------------------|-----------------------|

 G                     Em7
D|----------------------|------12-----17-17-15V-|
A|------17----17----17--|-----------------------|
E|15-15----15----15-----|12-12----12------------|

                                ...yo digo si Señor
 Bm                     A                        Em7-D/F#-G2
D|------12----12----12--|------12-----17-17-15V-|17v-15v-12v--|
A|14-14----14----14-----|12-12----12------------|-------------|
E|----------------------|-----------------------|-------------|
                                                 ^   ^   ^
                               (bateria):        |   |   |
                                      C|--------|X-------X-|
                                     C2|--------|----X-----|
                                 ... Hh|X-x-X-x-|----------|
                                      T|----o---|--o---o---|
                                      B|O---O---|O---O---O-|
                                       |3 + 4 + |

_____________________________________________________

***Aqui las primeras 2 lineas del coro solo toca la bateria y un
arpegio en el teclado.
despues de donde dice "palpitar" pueden aprobechar para
retroalimentarla guitarra:

 Digo SiATuVoluntad DigoSi a tu      palpitar,     Digo Si a tu di...
     C|--------|--------|-------------------------------|X-------|
    Hh|--------|--------|-------------------------------|--x-X-x-|
     T|--------|--------|--ooooooooooOOOOOO-OOO--OO-----|----o---|
     B|O-O-O-O-|O-O-O-O-|-------------------------------|O-------|
   Tm1|--------|--------|------------------O---OO--OO---|--------|
   Tm2|--------|--------|----------------------------OO-|--------|
      |1 + 2 + |3 + 4 + |1 + 2 + 3 + 4 + 1 + 2 + 3 + 4 +|1 + 2 + |




_________________________________________________________________

***orden de la cancion
 -Intro
 -verso1(pausa)
 -verso2
 -precoro(corta musica llegando a "A")
 -coro
 -intro
 -verso3(pausa)
 -verso4
 -precoro(corta musica despues de "A" llegando
                                 al ultimo "D")
 -coro X2(para musica)
 -guitarra(hace forma una vez)
 -guitarra/bateria/bajo (forma una vez)
 -puente X2(mas fuerte la segunda vez)(termina marcando Em7-D/F#-G2)
 -coro X2(primeras 2 lineas solo voz y bombo)
 -intro


__________________________________________________________________

INTRO: ( D---Bm-A-G---D---Bm7-A-A---D---Bm-A-G-)--Bm-A-G2

      D
Eres rey de mi corazón
       A
Dueño eres de mi canción
       Em7
Soy esclavo de tu amor
      D   C-G
Tuyo soy

       D
De ti nunca me soltaré
        A
Y a tu lado yo viviré
       Em7
Sólo quiero agradarte a Ti
             D
Con todo mi ser

Em7            G            D
  Me rindo a Ti Jesús soy tuyo
Em7        G    D       A
  Mi corazón vivirá por Ti

      D
Digo sí a tu voluntad
     A
Digo sí a tu palpitar
    Em7
Digo sí a tu dirección
      G
Digo sí al oír tu voz
         D (vuelve intro)
Sí Señor

       D
Mi confianza está puesta en Ti
         A
En cada paso Tú estas ahí
         Em7
Autor y consumador de mi fe
          D      C-G
Eres para mí

         D
Sólo en Ti puedo descansar
        A
Nada me robará la paz
     Em7
Mi mirada está fija en Ti
             D
No se desviará


Em7            G            D
  Me rindo a Ti Jesús soy tuyo
Em7        G    D       A   D
  Mi corazón vivirá por Ti

CORO: 2X

Puente:
    Bm             A
Me rindo a Ti yo digo sí
    G             Em7
Me rindo a Ti yo digo sí
    Bm            A         Em7-D/F#-G2
Me rindo a Ti yo digo sí Señor



***cualquier duda escribanme a theska_boy@hotmail.com
Calificar esta versión:
Aviso: Este fichero es trabajo propio de su transcriptor y representa su interpretación personal de la canción. El material contenido en esta página es para exclusivo uso privado, por lo que se prohibe su reproducción o retransmisión, así como su uso para fines comerciales.
Más versiones de Digo Sí, Coalo Zamorano
Digo Sí
acordes
Digo Sí
tablatura
Descubre más canciones de Coalo Zamorano