Confiare, Coalo Zamorano (tablatura)

Autor: maty_rock | 37740 visualizaciones

e:-13-------------------------------------------------------------|
B:-13-------------------------------------9-9-9--8----------------|
G:----10-12---10--8------10-12----8---10--------------------------|
D:------------------10--------------------------------------------|
A:----------------------------------------------------------------|
E:----------------------------------------------------------------|




e:-13-------------------------------------------------------------|
B:-13-------------------------------------------------------------|
G:----10-12---10--8------10-12----8---10---8--7--5----------------|
D:------------------10--------------------------------------------|
A:----------------------------------------------------------------|
E:----------------------------------------------------------------|



DEJEN COMENTARIOS
Calificar esta versión:
Aviso: Este fichero es trabajo propio de su transcriptor y representa su interpretación personal de la canción. El material contenido en esta página es para exclusivo uso privado, por lo que se prohibe su reproducción o retransmisión, así como su uso para fines comerciales.
Más versiones de Confiare, Coalo Zamorano
Confiare
acordes
Confiare
tablatura
Descubre más canciones de Coalo Zamorano