Con Humildad, Coalo Zamorano (tablatura)

Autor: Anónimo | 26686 visualizaciones

Bueno amigos, aquí les dejo la canción "con humildad" esta trae
el punteo que se realiza pasado la mitad de la canción si necesitan
mas ayuda, entren a http://www.youtube.com/watch?v=UFcmHC_WSAk

Intro: //B/E - Esus2 -  B/E -  Esus2

       B/C# - Esus2/C# - B/A - A//

Estrofa:
      E           A/E
        Con humildad
      E          A/E
        y sencillez
      C#m7      A
        a ti Señor
           F#m   B
        me acercaré

      E             A/E
        Es por tu amor
      E            A/E
        que soy feliz
      C#m7      A
        para decir
                 F#m     B   G#m
        con todo mi corazón


Coro:
           A      E/G#
        Te amo a ti
                A         C#m7
        no hay más que decir
            A   E/G#
        mi vida es
                 F#m     B
        la prueba de mi amor, por ti


Intreo //B/E - Esus2 -  B/E -  Esus2
       B/C# - Esus2/C# - B/A - A// - E

            B/E   Esus2     B/E  Esus2        B/C#   Esus2/C# B/A A
E ------------------------------9----15u-14----14-16----------------
B -12u-10----12--------------10---12--------17-------17-14-12-14---
G --------13----13-11-9----9----------------------------------------
D ----------------------11------------------------------------------
A-------------------------------------------------------------------
E ------------------------------------------------------------------


      B/E           Esus2             B/E              Esus2
E ----16-14-12-14-12----16-14-12-14-12---16-14-12-14-12---16-14-12-14-12-
B -12----------------12----------------12---------------12---------------
G -----------------------------------------------------------------------
D -----------------------------------------------------------------------
A -----------------------------------------------------------------------
e -----------------------------------------------------------------------


          B/C#     Esus2/C#          B/A             A
E ------------------------------------7-9-7----------7u-------------------
B -12-10-9-7-9-7---7-----------7-9-10-------10-9-7------------------------
G ---------------9---9---6-8-9---------------------9----------------------
D ---------------------9--------------------------------------------------
A ------------------------------------------------------------------------
e ------------------------------------------------------------------------

               Acordes
B/E:079800                Esus2:079900
B/C#:909800               Esus2/C#:909900
B/A:x04440                A:x02220
E:022100                  A/E:077600
C#m7x46454                F#m:244222
B:x24442                  G#m:266222
E/G#:422100
Calificar esta versión:
Aviso: Este fichero es trabajo propio de su transcriptor y representa su interpretación personal de la canción. El material contenido en esta página es para exclusivo uso privado, por lo que se prohibe su reproducción o retransmisión, así como su uso para fines comerciales.
Más versiones de Con Humildad, Coalo Zamorano
Con Humildad
acordes
Con Humildad (ver 2)
acordes
Con Humildad
tablatura
Descubre más canciones de Coalo Zamorano