Heartbreak Station, Cinderella (tablatura)

Autor: julioex96 | 40463 visualizaciones



Intro)

E||---------------3-----------|--------------3-----------|
B||-----------------3---------|----------------3---------|
G||*--------0-----------------|--------0-----------------|
D||*-----0-----0--------------|-----0-----0--------------|
A||---------------------0--2--|--3-----------------------|
E||---3-----------------------|--------------------0--3--|

 *
----------5---------------|-----------------------------||
------------3-------------|-----------------------------||
-----2----------0---------|--------0--------0-----------||
---0----0----------0------|-----0--------0----------0---||
--------------------------|--3--------2--------0h-2-----||
--2-----------------------|-----------------------------||

G             DaddF#      Em             D
Waiting at the station, tears filling up my eyes
C                     D       G              D
Sometimes the pain you hide burns like a fire inside
G            DaddF#      Em              D
Look out my window, sometimes it's hard to see
C                      D          G            D
The things you want in life come and go so easily

Am              
She took the last train 
C         G        D        
Out of my heart, ooo, ooo
Am
She took the last train 
C               G            D
And now I think I'll make a brand new start
Am
She took the last train 
C
Out of my heart

INSTRUMENTAL:  G  C  DaddF#  C  G/B  G  C  DaddF#  C  G/B

G              DaddF#      Em                 D
Watching the days go by, thinking 'bout the plans we made
C             D          G              D
Days turn into years, funny how they fade away
G                DaddF#            Em           D
Sometimes I think of those days, sometimes I just hide away
C                  D          G          D
Waiting on that 9:20 train, waiting on a memory

Am
She took the last train 
C           G       D
Out of my heart, ooo, ooo
Am
She took the last train 
C                 G             D
And now I think I'll make a brand new start
Am
She took the last train 
C
Out of my heart

Bm
My lady's on a fly
G
And she's never comin' back
D
My love is like a steam train
A
Runnin' down the tracks, yeah, yeah

(solo w/slide)

INSTRUMENTAL:  G  C  DaddF#  C  G/B  G  C  DaddF#  C  G/B

Am
She took the last train 
C          G        D
Out of my heart, ooo, ooo
Am
She took the last train 
C               G           D
And now I think I'll make a brand new start
Am
She took the last train 
C
Out of my heart

Am
She took the last train 
C          
She took the last train 
G                 D
ooo, out of my heart
Am
She took the last train 
C
She took the last train
G                              D
And now I think I'll make a new start
Am
The last train 
C
Out of my heart

OUTRO:  G  C  DaddF#  C  G/B  G  C  DaddF#  C  G/B  G





Calificar esta versión:
Aviso: Este fichero es trabajo propio de su transcriptor y representa su interpretación personal de la canción. El material contenido en esta página es para exclusivo uso privado, por lo que se prohibe su reproducción o retransmisión, así como su uso para fines comerciales.
Más versiones de Heartbreak Station, Cinderella
Heartbreak Station
acordes
Heartbreak Station
tablatura
Descubre más canciones de Cinderella