1000 Pedazos, Christina Y Los Subterraneos (acordes)

Autor: pqeksg | 44969 visualizaciones

amccmdemg
 Intro: GCAm [x3]  GCAmCm 

  G            C                  Am
Cuatrocientos golpes contra la pared
  G             C               Am
han sido bastantes para aprender
  G                C               Am
a encajar con gracia y caer de pie,
  G            C                  Am
esconderlo dentro y llorar después.
  G                C                 Am
Por eso cuando dijo que no me quería
  G            C                     Am
apreté los dientes, dije que me iría aaah.

Coro
  G      	           C  
Mil pedazos de mi corazón
Em                   D             C
volaron por toda la habitación.

  G                C                 Am
Se quedaron todos rotos por el suelo,
  G                C                 Am
uno fue a clavarse en su chaqueta de cuero.
  G                C                 Am
Los cogí deprisa y me los guardé
  G                C                 Am
por si hacían falta para otra vez.
  G                C                 Am
En medio de mi pecho quedó un agujero,
  G                C                 Am
porque no se viera puse mi sombrero oooh.

Coro [x2]

Solo
e|------------------------------------------------------------------------
B|-------------------------------------------------------------------5-8.-
G|-------------------------------------------------------5-4-----4/7------
D|-----5-7-5-5.-/5/-/5/---------/5/-----7/9-7.-----5.--------7-5----------
A|-5/7------------------/7/-/7/-----/7/--------5-7----7-------------------
E|------------------------------------------------------------------------

e|--------10----------------------------------------------------
B|-12.-13----12-10.--------------12-10-10-------10--------------
G|------------------12-9-12.-9/-----------12-12----12.----12-9--
D|-----------------------------------------------------12-------
A|--------------------------------------------------------------
E|--------------------------------------------------------------

e|----------------------------10--------------------------------
B|---------10-------------12.----10----10-----------------------
G|----12-9----12-12-9-12.-----------12----9---------------------
D|-12---------------------------------------12------------------
A|---------------------------------------------12-10-12----10.--
E|------------------------------------------------------12------

e|-15--------------------------------10-10----10.-12-12.-10----10--------
B|----15-----------------------11/12-------12---------------12----10-----
G|-------15/16-14-12-14----12.---------------------------------------12--
D|----------------------14-----------------------------------------------
A|-----------------------------------------------------------------------
E|-----------------------------------------------------------------------

e|------------|
B|-10---------|
G|----9-12..--|
D|------------|
A|------------|
E|------------|

  G                C                 Am		[Riff 1]
Deja, sólo un trocito dentro de su bota
  G                C                 Am
para que le duela si se va con otra aaah.

Riff 1
e|--------------10-----------|
B|--------10/12----10--------|
G|-9-12-9-------------12-12.-|
D|---------------------------|
A|---------------------------|
E|---------------------------|

Coro
  G      	           C  
Mil pedazos de mi corazón
Em                   D             C
volaron por toda la habitación.  [x2]

       G  D          C
Por toda la habitación
       G  D          C	[Riff 2]
por toda la habitación

Riff
e|-------10--------------12.-10---------------------------|
B|-----7----<10>-8---8.---------12-10-12-12/10.---10------|
G|-8/9-------------9----------------------------9----9-12-|
D|--------------------------------------------------------|
A|--------------------------------------------------------|
E|--------------------------------------------------------|

       G  D          C
por toda la habitación...

 

Comentarios del colaborador: lacuerda.net

Calificar esta versión:
Aviso: Este fichero es trabajo propio de su transcriptor y representa su interpretación personal de la canción. El material contenido en esta página es para exclusivo uso privado, por lo que se prohibe su reproducción o retransmisión, así como su uso para fines comerciales.
Más versiones de 1000 Pedazos, Christina Y Los Subterraneos
1000 Pedazos
acordes
1000 Pedazos (ver 2)
acordes
Descubre más canciones de Christina Y Los Subterraneos