Payaso, Cholo Berrocal (tablatura) (ver 2)

Autor: chewinegu | 25317 visualizaciones



(repetir 2 veces)

-0-0-0-12-0-12-0-12-10-12-10----------- 10----------------------
----------------------------13-10--12-13--13-12-13-10-13-10-----
-----------------------------------------------------------12-9-
----------------------------------------------------------------
----------------------------------------------------------------
----------------------------------------------------------------

(repetir 2 veces)

------------5-5-10-12----12-12-14-15-14-12-10-8--
----------7---7-12-13--13---------------13-12-10-
-5/7--7-7----------------------------------------
-------------------------------------------------
-------------------------------------------------
-------------------------------------------------

-7/8 --8--8----2/3--3-3-----5-3--------
-9/10---10-10--4/5---5-5---5-----5-3---  Continua
--------------------------5-----5-4-5--  A en la 1ra. vez
---------------------------------------  B en la 2da. vez
---------------------------------------
---------------------------------------

-5--
-5--
-5--  parte A
----
----
----

-------5--
------5---
-----5----  parte B
-6-7------
----------
----------

Saludos desde Arequipa-Perú





Calificar esta versión:
Aviso: Este fichero es trabajo propio de su transcriptor y representa su interpretación personal de la canción. El material contenido en esta página es para exclusivo uso privado, por lo que se prohibe su reproducción o retransmisión, así como su uso para fines comerciales.
Más versiones de Payaso, Cholo Berrocal
Payaso
tablatura
Payaso (ver 2)
tablatura
Descubre más canciones de Cholo Berrocal