Clara, Chinoy (tablatura)

Autor: snoopyale | 33177 visualizaciones

Les dejo el apergiado de la cancion, que no he pude encontrar en ningun otro lado, solo estaban los acordes, espero les guste.

DO                DO                       SOL
-0---|----------------------------|-----------------------------|
-1---|-------1------------1-------|---------3-----------3-------|
-0---|-----0----0-------0---0-----|-------0---0-------0---0-----|
-2---|---2--------2---2-------2---|-----0-------0---0--------0--|
-3---|--------------3-----------3-|---2-----------2------------2|
-----|----------------------------|-----------------------------|

LAm             LAm                         FA
-0---|-----------------------------|----------------------------|
-1---|-------1------------1--------|--------1-----------1-------|
-2---|-----2---2--------2---2------|------2---2-------2----2----|
-3---|---2-------2----2-------2----|----3-------3---3--------3--|
-3---|--------------0-----------0--|--3-----------3------------3|
-0---|-----------------------------|----------------------------|

SOL                SOL                      DO
-3---|-----------------------------|----------------------------|
-3---|---------3-----------3-------|-------1------------1-------|
-0---|-------0---0-------0---0-----|-----0----0-------0---0-----|
-0---|-----0-------0---0--------0--|---2--------2---2-------2---|
-2---|---2-----------2------------2|--------------3-----------3-|
-3---|-----------------------------|----------------------------|              SOL               LAm            LAm
|-----------------------------|-0--|----------------------------|
|---------3-----------3-------|-1--|------1------------1--------|
|-------0---0-------0---0-----|-2--|----2---2--------2---2------|
|-----0-------0---0--------0--|-3--|--2-------2----2-------2----|
|---2-----------2------------2|-3--|-------------0-----------0--|
|-----------------------------|-0--|----------------------------|
                         
   FA      SOL       DO
--1--1--|--3--3--|--0--0--| 
--1--1--|--3--3--|--1--1--|
--2--2--|--0--0--|--0--0--|
--3--3--|--0--0--|--2--2--|
--3--3--|--2--2--|--3--3--|
--1--1--|--3--3--|--------|


Este arpegio se usa en la intro y se mantiene durante toda la cancion.

Comentarios del colaborador: Espero les guste

Calificar esta versión:
Aviso: Este fichero es trabajo propio de su transcriptor y representa su interpretación personal de la canción. El material contenido en esta página es para exclusivo uso privado, por lo que se prohibe su reproducción o retransmisión, así como su uso para fines comerciales.
Más versiones de Clara, Chinoy
Clara
acordes
Clara
tablatura
Descubre más canciones de Chinoy