Poco A Poco, Chetes (acordes) (ver 2)

Autor: Uribe10 | 30764 visualizaciones

[Acordes]                                             __
                                                        |
    (D)   E/D **Gm  *Gm  (Gm)  Dsus4/C  Gadd9  G#m/5-       |
e---2----4----3----3----3----3-------3-------4--        |
B---3----5----3----3----3----3-------3-------0--        |
G---2----4----3----0----3----2-------2-------4--        |
D---0----0----0----0----5----0-------0-------0--        |
A------------------1----5----3-------2-------5--        |
E-----------------------3--------------------4--
                                                  [capo en 3º traste]
   (E7)  (Asus4) (Dsus4)  (A)   (Em7)  (G)  (Bm)   (C)  (D7)
e---0----0-----3----0----0---3---2---0---3--            |
B---3----3-----3----2----3---3---3---1---1--            |
G---1----2-----2----2----0---0---4---2---3--            |
D---2----2-----0----2----2---0---4---0---0--            |
A---2----0----------0----2---2---2---3------            |
E---0----0---------------0---3--------------            |
                                                      __|

[INTRO]

(D) (D7) (G) (Gm)
(D) Dsus4/C Gadd9 *Gm  (C)




(D) E/D Hoy no soy el mismo, **Gm De éste laberinto, (D) Logré salir. D Y cómo iba a cambiar E/D Si todo ya estaba escrito, **Gm En los versos de un libro (D) Que no leí. Bm Solo quiero quedarme (E7) en este sueño eterno (Em7) (G) Que jamás cambiará, G#m/5- A que jamás cambiará. [CORO] (D) (D7) (G) (Gm) Poco a poco, Me vuelvo loco, (D) (E7) (Em7) (A) (Asus4) (A) tal vez, Todo está al revés. (D) E/D Hoy hallé el camino, **Gm dentro del abismo, (D) [Dsus4/C Gadd9 *Gm] Logré huir. D Dónde voy a llegar?, E/D ya lo sabrá el destino, (Em7) (G) Que jamás cambiará, G#m/5- A que jamás cambiará. (D) (D7) (G) (Gm) Poco a poco, Me vuelvo loco, (D) (E7) (Em7) (A) (Asus4) (A) tal vez, Todo está al revés (D) (D7) (G) (Gm) Poco a poco, Me convierto en otro, (D) (E7) (Em7) (A) (Asus4) (A) tal vez, Todo está al revés Bm Solo quiero quedarme (E7) en este sueño eterno (Em7) (G) Que jamás cambiará, G#m/5- A que jamás cambiará. (D) (D7) (G) (Gm) Poco a poco, Me vuelvo loco, (D) (E7) (Em7) (A) (Asus4) (A) tal vez, Todo está al revés (D) (D7) (G) (Gm) Poco a poco, Me convierto en otro, (D) (E7) (Em7) [A (Asus4) A] x2 (D) tal vez, Todo está al revés

Comentarios del colaborador: fuente original de lacuerda.net

Calificar esta versión:
Aviso: Este fichero es trabajo propio de su transcriptor y representa su interpretación personal de la canción. El material contenido en esta página es para exclusivo uso privado, por lo que se prohibe su reproducción o retransmisión, así como su uso para fines comerciales.
Más versiones de Poco A Poco, Chetes
Poco A Poco
acordes
Poco A Poco (ver 2)
acordes
Descubre más canciones de Chetes