No Sé Por Qué, Chayanne (tablatura)

Autor: Anónimo | 42175 visualizaciones

Bueno envio esta transcripcion sacada en una noche de aburrimiento
el buen oido y las ganas lo hicieron posible asi que espero que les guste
si hay fallas no duden en hacermela saber bueno ahi les va la intro


100 % seguro ( eso creo)


/ : deslizar entre las cuerdas

---------------------10--------10--------------------------------
----------------6/7-----7--7/8-----8--8/10----7/8---7--7--5--5/3-
-------6--7--9---------------------------------------------------
--7--9-----------------------------------------------------------
-----------------------------------------------------------------
-----------------------------------------------------------------




--------5--3-----------0/2------------
--5--7--------3-----------------------
-----------------4--2------7--7--7/9--
--------------------------------------
--------------------------------------
--------------------------------------

espero que les guste creo que esta buena
Calificar esta versión:
Aviso: Este fichero es trabajo propio de su transcriptor y representa su interpretación personal de la canción. El material contenido en esta página es para exclusivo uso privado, por lo que se prohibe su reproducción o retransmisión, así como su uso para fines comerciales.
Más versiones de No Sé Por Qué, Chayanne
No Sé Por Qué
acordes
No Sé Por Qué (ver 2)
acordes
No Sé Por Qué
tablatura
Descubre más canciones de Chayanne