Llorona, Chavela Vargas (tablatura)

Autor: Anónimo | 16046 visualizaciones



Todo esto va con un ritmo ranchero y cuando se toca este 
requinto lleva el acompañamiento de otra guitarra 
con la melodia del la estrofa.

|---------------------------------------------||
|---------------------------------------------||
|----------0--1----3--1--0------------------0-||
|--3--2--3-----------------3--0--1--0--1--3---||
|---------------------------------------------||
|---------------------------------------------||

|-------------------------------------------0-||
|-------------------------------------------1-||
|--3--1--0----------------------1--0--------2-||
|----------3--1------------1--3------3--2---2-||
|---------------3--4--3--4------------------0-||
|-------------------------------------------0-||
Esta parte procura tocarla con un pañuelo en el brazo para que la 
puedas apagar o dar el toque suave

|---------------------------------------------||
|---------------------------------------------||
|----------0--1----3--1--0------------------0-||
|--3--2--3-----------------3--0--1--0--1--3---||
|---------------------------------------------||
|---------------------------------------------||

|-------------------------------------------0-||
|-------------------------------------------1-||
|--3--1--0----------------------1--0--------2-||
|----------3--1------------1--3------3--2---2-||
|---------------3--4--3--4------------------0-||
|-------------------------------------------0-||

|---------------------------------------------|
|------------------1--------------------------|
|------------------2--------------------------|
|---3--2-----------2--------------------------|
|-3------3--1------0--------------------------|
|-------------4--0-0--------------------------|

LAm                 REm
no se que tienen las flores llorona 
      LAm             MI7
las flores del campo santo(bis)
      LAm               SOL
que cuando las mueve el viento llorona
 FA              MI
parece que estan llorando(bis)
LAm        REm      LAm               MI7
hay de mi llorona, llorona tu eres mi yunta(bis)
LAm            SOL
me quitaran de quererte llorona
       FA         MI
pero de olvidarte nunca(bis)

|---------------------------------------------||
|---------------------------------------------||
|----------0--1----3--1--0------------------0-||
|--3--2--3-----------------3--0--1--0--1--3---||
|---------------------------------------------||
|---------------------------------------------||

|-------------------------------------------0-||
|-------------------------------------------1-||
|--3--1--0----------------------1--0--------2-||
|----------3--1------------1--3------3--2---2-||
|---------------3--4--3--4------------------0-||
|-------------------------------------------0-||

|---------------------------------------------||
|---------------------------------------------||
|----------0--1----3--1--0------------------0-||
|--3--2--3-----------------3--0--1--0--1--3---||
|---------------------------------------------||
|---------------------------------------------||

|-------------------------------------------0-||
|-------------------------------------------1-||
|--3--1--0----------------------1--0--------2-||
|----------3--1------------1--3------3--2---2-||
|---------------3--4--3--4------------------0-||
|-------------------------------------------0-||
 

|---------------------------------------------|
|------------------1--------------------------|
|------------------2--------------------------|
|---3--2-----------2--------------------------|
|-3------3--1------0--------------------------|
|-------------4--0-0--------------------------|


LAm                 REm
a un santo cristo de fierro llorona
   LAm            MI7
mis penas le conte yo (bis)
LAm                 SOL
cuales no serian mis penas llorona
      FA            MI
que el santo cristo lloró(bis)
LAm         REm      LAm                MI7
hay de mi llorona, llorona de un campo lirio(bis)
  LAm             SOL       
el que no sabe de amores llorona
   FA                MI
no sabe lo que es martirio(bis)

|---------------------------------------------||
|---------------------------------------------||
|----------0--1----3--1--0------------------0-||
|--3--2--3-----------------3--0--1--0--1--3---||
|---------------------------------------------||
|---------------------------------------------||

|-------------------------------------------0-||
|-------------------------------------------1-||
|--3--1--0----------------------1--0--------2-||
|----------3--1------------1--3------3--2---2-||
|---------------3--4--3--4------------------0-||
|-------------------------------------------0-||

|---------------------------------------------||
|---------------------------------------------||
|----------0--1----3--1--0------------------0-||
|--3--2--3-----------------3--0--1--0--1--3---||
|---------------------------------------------||
|---------------------------------------------||

|-------------------------------------------0-||
|-------------------------------------------1-||
|--3--1--0----------------------1--0--------2-||
|----------3--1------------1--3------3--2---2-||
|---------------3--4--3--4------------------0-||
|-------------------------------------------0-||

|---------------------------------------------|
|------------------1--------------------------|
|------------------2--------------------------|
|---3--2-----------2--------------------------|
|-3------3--1------0--------------------------|
|-------------4--0-0--------------------------|


LAm                  REm
dos besos llevo en el alma llorona
     LAm            MI7
que no se apartan de mi(bis)
   LAm       SOL
el ultimo de madre llorona
     FA            MI
y el primero que te di(bis)
 LAm        REm      LAm             MI7
hay de mi llorona, llorona llevame al rio(bis)
  LAm          SOL          FA                 MI
tapame con tu reboso llorona porque me muero de frio(bis)

|---------------------------------------------|
|------------------1--------------------------|
|------------------2--------------------------|
|---3--2-----------2--------------------------|
|-3------3--1------0--------------------------|
|-------------4--0-0--------------------------|


Espero les Guste esta sencillo a pesar de que se ve complicada.
Por cierto quiero decir que amo a mi flakita Betsy





Calificar esta versión:
Aviso: Este fichero es trabajo propio de su transcriptor y representa su interpretación personal de la canción. El material contenido en esta página es para exclusivo uso privado, por lo que se prohibe su reproducción o retransmisión, así como su uso para fines comerciales.
Más versiones de Llorona, Chavela Vargas
Llorona
acordes
Llorona (ver 2)
acordes
Llorona
tablatura
Descubre más canciones de Chavela Vargas