Cuando Llora Mi Guitarra, Chaqueño Palavecino (tablatura)

Autor: kimba3000 | 30091 visualizaciones






                            cejilla 2               cejilla 7
                             (c2)                    (c7)
-|---------|---|-----|-----2-4-5-7-9--|------|-----7-9-10-9^7-
-|-----3-**|-7-|-5-3-|----2----7-9-10-|------|----7-----------
-|---4-**--|7--|-6-4-|---2------------|------|---7------------
-|---------|---|-----|----------------|-4**9-|--9-------------
-|-2-------|---|-----|----------------|------|----------------
-|---------|---|-----|-2--------------|------|-7--------------

 |-----2-5--7-9-|------5--9--|
 |----2--7-9-10-|----7--7-7--|
 |---2----------|-6-7--------|
 |--------------|------------|
 |--------------|------------|
 |-2------------|------------|




-|---------5-|--5-|--7--6--5|--4-|------|---------------9---|
-|--------7--|-7--|-9--8--7-|-6--|------|-------------10-10-|
-|-7-6-7-8---|----|---------|----|------|-------------------|
-|-----------|----|---------|----|-**11-|-12-11-10-11-------|
-|-----------|----|---------|----|------|-------------------|
-|-----------|----|---------|----|------|-------------------|

  (mc9)
----9--|-----9-|--5--2-||
---9-9-|---10--|-7--2--||
-------|-------|-------||
-9-----|-------|-------||
-------|-------|-------||
-------|-2-----|-------||


** Significa corrida, o arrastrada..
^ Significa ligadura
(c) cejilla
(mc) media cejilla




Fa#m
Cansado de llamarte
Sim
Con mi alma destrozada
Sim                     ReM
Comprendo que no vienes
Sol#m              Do#M
Por que no quiere dios

Sim
Y al ver que inutilmente
           Fa#m
te envio mis palabras          Repite 2 veces
           Do#M              /
llorando mi guitarra        /
                Fa#m/Fa#M  /
te dejo oir su voz        /


Sim
Llora guitarra porq ere mi voz de dolor
Fa#m
Grita su nombre de nuevo si no te escuchó
Fa#M      Sim
YYYyyy   dile,
                                 Fa#m
que aun la quiero que aun espero que vuelva
                        Do#M
que si no viene mi amor no tiene consuelo
                             Sol#M / Fa#M
que solitaria sin su cariño me mue---e-----ero
Sim                                         Fa#m
Guitarra tu que interpretas con tu vibrar mi quebranto
                              Do#M
tu que recibes en tu madero mi llando
                               Fa#m
Llora con migo si no la vieras volver.

                                                    ^
-|-14-14-14-14-|-14-10-|---9--7-|---9--10-|-12-10-9--10-|
-|-15-15-15-15-|-15-12-|-10--9--|-10-12---|---12--11-12-|
-|-------------|-------|--------|---------|-------------|
-|-------------|-------|--------|---------|-------------|
-|-------------|-------|--------|---------|-------------|
-|-------------|-------|--------|---------|-------------|

-12-12-12-12-12-12-12-12-12-|-9--|
-12-12-12-12-12-12-12-12-12-|-10-|
----------------------------|----|
----------------------------|----|
----------------------------|----|
----------------------------|----|

-|--7--5-|-------9-9--9--|-8-9--|-14-14-|-9--7-|--5-4-|
-|-9--7--|-----10--10-10-|-9-10-|-14-14-|-10-9-|-7-6--|
-|-------|---11----------|------|-------|------|------|
-|-------|-11------------|------|-------|------|------|

-|-------|---------------|------|-------|------|------|
-|-------|---------------|------|-------|------|------|

                                           Fa#m
I(e)  ------------|----------------------||------2-||
II(B) --2-3-2-1-2-|----------------------||-----2--||
III(G)------------|----------------------||----2---||
IV(D) ------------|-----------6-0--------||---4----||
(A)   ------------|-4-5-4-3-4----4-2-0---||--4-----||
VI(E) ------------|-------------------4-2||-5------||


Fa#M      Sim
YYYyyy   dile,
                                 Fa#m
que aun la quiero que aun espero que vuelva
                        Do#M
que si no viene mi amor no tiene consuelo
                             Sol#M / Fa#M
que solitaria sin su cariño me mue---e-----ero
Sim                                         Fa#m
Guitarra tu que interpretas con tu vibrar mi quebranto
                              Do#M
tu que recibes en tu madero mi llando
                               Fa#m
Llora con migo si no la vieras volver.
Sim        Do#M         Fa@m
Guitarra llora con mi dolor
                           (Golpes)
Final: Sim Do#M Fa#m------Do#M Fa#m





   Sol#M      dO#M     Fa#M
   (C3)       (c4)     (c2)
-|-3--------|--------|-2------|-2------|
-|----------|------6-|--------|--------|
-|----4-----|-----6--|---3----|--------|
-|----------|----6---|--------|--------|
-|--------5-|--------|------4-|------4-|
-|------5---|--------|-----4--|-----4--|
-|-3--------|-4------|-2------|-2------|

Ahi van los acordes que la maquina no toma se los manco
correctos,.





Comentarios del colaborador: MUY FAACILL.. DISFRUTTENN!!

Calificar esta versión:
Aviso: Este fichero es trabajo propio de su transcriptor y representa su interpretación personal de la canción. El material contenido en esta página es para exclusivo uso privado, por lo que se prohibe su reproducción o retransmisión, así como su uso para fines comerciales.
Más versiones de Cuando Llora Mi Guitarra, Chaqueño Palavecino
Cuando Llora Mi Guitarra
acordes
Cuando Llora Mi Guitarra
tablatura
Descubre más canciones de Chaqueño Palavecino