Amorcito, Chaqueño Palavecino (tablatura)

Autor: Anónimo | 39780 visualizaciones



Transcripción de Fernanda GARCIA...

AMORCITO ……. PARA EL CHANGUITO RODRIGO ¡! ¡!


1-----------------------7---------7-----7--10--9--7--------7--
2-----------7--8--10-----8----8------8-------------7-----7----
3-----7--9------------------9--------9----------------7--7----
4---------------------------------------------------------9---
5-------------------------------------------------------------

1--9-7-7-6---6--7--9--7---------------/
2---------------------------8--9---------/
3------------------------------------10----/
4------------------------------------------
5------------------------------------------

1---2222---3---5---7-----7----10--9-9--7-----/----------------
2---3333---5---7---8----8------------------7---/--------------
3-------------------------9---------------------7-/-----------
4--------------------------------------------------/----------

1----10----12--13-14-------------12----------10--------9------
2----7--------------------------------------------------------
3----7---------------------------12--------11--------9--------
4----7--------------------------------------------------------
5-------------------------------------------------------------
6-------------------------------------------------------------

1------7----------------------------/
2---------------7------------------------/
3----------------7---------------------/
4----------------------9-----------------/
5----------------------9-----------------/
6----------------------------10---7-----/





Calificar esta versión:
Aviso: Este fichero es trabajo propio de su transcriptor y representa su interpretación personal de la canción. El material contenido en esta página es para exclusivo uso privado, por lo que se prohibe su reproducción o retransmisión, así como su uso para fines comerciales.
Más versiones de Amorcito, Chaqueño Palavecino
Amorcito
acordes
Amorcito
tablatura
Descubre más canciones de Chaqueño Palavecino