My Heart Will Go On, Celine Dion (tablatura) (ver 2)

Autor: nEbLiiCa | 17229 visualizaciones



e------------------------0-------------------------------------       
b-1-1-1-1-0-1---1-0-1--3---3---1-1-1-1-0-1--1------------------       
G----------------------?---------------------0-----------------       
D--------------------------------------------------------------         
A--------------------------------------------------------------       
E--------------------------------------------------------------  

e------------------------0-------------------------------------       
b-1-1-1-1-0-1---1-0-1--3---3---1-1-1-1-0-1--1------------------       
G----------------------?---------------------0-----------------       
D--------------------------------------------------------------         
A--------------------------------------------------------------       
E-------------------------------------------------------------- 

e-------3-1-0---0-1-0-----------------0------------------------       
b-1-3---------3------3-1-0-1--1-0-1-3---3----------------------       
G----0-----------------?---------------------------------------       
D--------------------------------------------------------------         
A--------------------------------------------------------------       
E--------------------------------------------------------------  

e-------3-1-0---0-1-0-----------------0------------------------       
b-1-3---------3------3-1-0-1--1-0-1-3---3----------------------       
G----0-----------------?---------------------------------------       
D--------------------------------------------------------------         
A--------------------------------------------------------------       
E--------------------------------------------------------------  

e------------------------0-------------------------------------       
b-1-1-1-1-0-1---1-0-1--3---3---1-1-1-1-0-1--1------------------       
G----------------------?---------------------0-----------------       
D--------------------------------------------------------------         
A--------------------------------------------------------------       
E-------------------------------------------------------------- 

e------------------------0-------------------------------------       
b-1-1-1-1-0-1---1-0-1--3---3---1-1-1-1-0-1--1------------------       
G----------------------?---------------------0-----------------       
D--------------------------------------------------------------         
A--------------------------------------------------------------       
E-------------------------------------------------------------- 

e-------3-1-0---0-1-0-----------------0------------------------       
b-1-3---------3------3-1-0-1--1-0-1-3---3----------------------       
G----0-----------------?---------------------------------------       
D--------------------------------------------------------------         
A--------------------------------------------------------------       
E-------------------------------------------------------------- 

e-------3-1-0---0-1-0-----------------0------------------------       
b-1-3---------3------3-1-0-1--1-0-1-3---3----------------------       
G----0-----------------?---------------------------------------       
D--------------------------------------------------------------         
A--------------------------------------------------------------       
E-------------------------------------------------------------- 








By: *nÉbLiiCa*





Calificar esta versión:
Aviso: Este fichero es trabajo propio de su transcriptor y representa su interpretación personal de la canción. El material contenido en esta página es para exclusivo uso privado, por lo que se prohibe su reproducción o retransmisión, así como su uso para fines comerciales.
Más versiones de My Heart Will Go On, Celine Dion
My Heart Will Go On
acordes
My Heart Will Go On
tablatura
My Heart Will Go On (ver 2)
tablatura
My Heart Will Go On (ver 3)
tablatura
My Heart Will Go On (ver 4)
tablatura
My Heart Will Go On (ver 5)
tablatura
My Heart Will Go On
teclado
Descubre más canciones de Celine Dion