Todas Mueren Por Mi, Cartel De Santa (tablatura) (ver 2)

Autor: sparculs | 30551 visualizaciones

ojala les quede esta rola que esta super chida.
ESTO ES COMO UN DOLOR DE MUELAS...
TE VA A DOLER PERO NO VAS A QUERER QUE TE LA SAQUE.
JAJAJA

e|----3-----------------------
b|---3-------------------
g|--3-------------------
d|-5------------------
a|----------------------
e|---------------------------
     
e|----3-----------------------
b|---4-------------------
g|--5-------------------
d|-5------------------
a|----------------------
e|---------------------------


e|---------------------------
b|----------------------
g|--3-7-5v--------3-------
d|5--------5-5-5-3-5v-----
a|----------------------
e|---------------------------

e|---------------------------
b|----------------------
g|--3-7-5v--------3-------
d|5--------5-5-5-3-5v-----
a|----------------------
e|---------------------------

       
e|---------------------------
b|----------------------
g|--3-7-5v--------3-------
d|5--------5-5-5-3-5v-----
a|----------------------
e|---------------------------
       
e|---------------------------
b|----------------------
g|--3-7-5v--------3-------
d|5--------5-5-5-3-5v-----
a|----------------------
e|---------------------------

y es que es asi...
todas mueren por mi.....
Calificar esta versión:
Aviso: Este fichero es trabajo propio de su transcriptor y representa su interpretación personal de la canción. El material contenido en esta página es para exclusivo uso privado, por lo que se prohibe su reproducción o retransmisión, así como su uso para fines comerciales.
Más versiones de Todas Mueren Por Mi, Cartel De Santa
Todas Mueren Por Mi
tablatura
Todas Mueren Por Mi (ver 2)
tablatura
Todas Mueren Por Mi (ver 3)
tablatura
Descubre más canciones de Cartel De Santa