La Pelotona, Cartel De Santa (tablatura) (ver 2)

Autor: viggo | 45921 visualizaciones

espero que les guste 
intro
Se repite 2 veces 
E--------------------------------------
B--------0---------------0-------1-0---
G------4---------0-----2-------2------- 
D--4/5-----5---2---2/4-------1---------
A------------3---------------2----------
E--------------------------------------

Verso:
Se repite 7 veces
E-------0------------------------------
B--------0---------------0-------1-0---
G------4---------0-----2-------2------- 
D--4/5---------2---2/4-------1---------
A------------3-------------2-----------
E--------------------------------------
SERREPITE 2

E------0-------------------------------------
B-------0----------------0--------1/3-1------
G-----4----4-----0-----2-------2--2---2------
D--4/5---------2---2/4-------1---------------
A------------3-------------2-----------------
E--------------------------------------------

X1
E------0-------------------------------------
B-------0----------------0------1-0----------
G-----4----4-----0-----2-------2------------
D--4/5---------2---2/4-------1---------------
A------------3-------------2-----------------
E--------------------------------------------
X2
E----7--7------------------------------------
B----5--5---------------------0--------------
G----5--5----------5---5----------5----------
D----5--5------------7---7-------------------
A----7--7-------6---------------------------
E--5-----------7-----------------------------
X4
E-----0-0-0----------------------------------
B-----0-0-0------0-----------------------
G-----0-0-0-----5-5----------------------
D-----5-5-5----7---7----------------------
A----7-7-7-7--6---------------------------
E--0---------7-----------------------------
X5
E-------0------------------------------
B--------0---------------0-------1-0---
G------4---------0-----2-------2------- 
D--4/5---------2---2/4-------1---------
A------------3-------------2-----------
E--------------------------------------


X2

E------0-------------------------------------
B-------0----------------0--------1/3-1------
G-----4----------0-----2-------2--2---2------
D--4/5---------2---2/4-------1---------------
A------------3-------------2-----------------
E--------------------------------------------
X1
E-------0------------------------------
B--------0---------------0-------1-0---
G------4---------0-----2-------2------- 
D--4/5---------2---2/4-------1---------
A------------3-------------2-----------
E--------------------------------------
X2
E----7--7------------------------------------
B----5--5---------------------0--------------
G----5--5----------5---5----------5----------
D----5--5------------7---7-------------------
A----7--7-------6---------------------------
E--5-----------7-----------------------------
X5
E-----0-0-0------------------------------
B-----0-0-0------0-----------------------
G-----0-0-0-----5-5----------------------
D-----5-5-5----7---7----------------------
A----7-7-7-7--6---------------------------
E--0---------7-----------------------------
X1
E-----0-0-0----------------------------------
B-----0-0-0------0-----------------------
G-----0-0-0-----5-5-7--------------------
D-----5-5-5----7--------------------------
A----7-7-7-7--6---------------------------
E--0---------7-----------------------------
X1
E----7--7------------------------------------
B----5--5---------------------0--------------
G----5--5----------5---5----------5----------
D----5--5------------7---7-------------------
A----7--7-------6---------------------------
E--5-----------7-----------------------------






X1
E----5--5------------------------------------
B----7--7---------------------0--------------
G----5--5----------5---5----------5----------
D----5--5------------7---7-------------------
A----7--7-------6---------------------------
E--5-----------7-----------------------------
X1
E----7--7------------------------------------
B----5--5---------------------0--------------
G----5--5----------5---5----------5----------
D----5--5------------7---7-------------------
A----7--7-------6---------------------------
E--5-----------7-----------------------------
E-------4-0-2---2--0----------------------
B-----4-------4---------------------------
G--------------------------------------
D---------------------------------------
A-------------------------------------
E-----------------------------------------
Calificar esta versión:
Aviso: Este fichero es trabajo propio de su transcriptor y representa su interpretación personal de la canción. El material contenido en esta página es para exclusivo uso privado, por lo que se prohibe su reproducción o retransmisión, así como su uso para fines comerciales.
Más versiones de La Pelotona, Cartel De Santa
La Pelotona
acordes
La Pelotona
tablatura
La Pelotona (ver 2)
tablatura
Descubre más canciones de Cartel De Santa