Por Una Mirada, Carlos Ramon Fernandez (acordes) (ver 2)

Autor: nestor23 | 16093 visualizaciones



1                                 2
Me pedis el cielo te traigo una estrella,
             3                      4
me pedis el mundo y lo pongo a tus pies,
            5                      1
pero no me pidas que de vos me olvide
         6                        1
eso es imposible no lo puedo hacer.
                                   2
Quisieran mis manos hundirse en tu pelo
                3                  4
quisieran mis labios recorrer tu piel,
                5                       1
y aunque tu me marques sectores prohibidos
                 6                   1
voy a entrar en ellos a beber tu miel.
                5                        1
y aunque tu me marques sectores prohibidos
                6                    1
voy a entrar en ellos a beber tu miel.
              3                    4
Que tarde esa tarde cuando me miraste
          6                    1
ni te imaginabas lo que yo senti,
           5                       1
y cuando creia que estaba de vuelta
          6                 1
con una mirada comence a vivir.
          5                       1
y cuando creia que estaba de vuelta
          6                   1
con una mirada comence a vivir.


AQUI PAUSA!!!!,HAORA TOQUEN LA INTRO,COMO ESTAN ACOMODODADO,LOS GRAFICOS,O LOS ACORDES.ABAJO¡¡¡¡¡

1                                        2
Cuando llegue el dia de unir nuestros labios
              3                 4
en el primero beso si nada sentis,
             5                       1
mienteme un ratito dime que me quieres
             6                    1
no mates de golpe lo que vive en mi.
                                 2
Si por el contrario te has enamorado
               3                    4
no te olvides nunca que yo soy cantor,
               5               1
que bebe de dia la copa de sueño
             6                    1
y derrama en noche la copa de amor,
              5                 1
que bebe de dia la copa de sueño
             6                   1
y derrama en noche la copa de amor.
                3                   4
Que tarde esa tarde cuando me miraste
          6                    1
ni te imaginabas lo que yo senti,
           5                      1
y cuando creia que estaba de vuelta
            6                1
con una mirada comence a vivir.
           5                      1
y cuando creia que estaba de vuelta
          6                  1
con una mirada comence a vivir.



BUENO"[ATENCION]":AQUI LES VOY A PONER LOS ACORDES,PARA QUE TOQUEN LA CANCION,PERO,SE LOS VOY A PONER ACOMODADAS,PARA QUE TOQUEN LA INTRO,CON RASGIDO DE "ZAMBA" AGANLO,POR EJ EL PRIMER ACORDE QUE LES PONGO ES ACORDE 1,DESPUES LE SIGUE ACORDE 2,3,4,5,AQUI SE VA A REPETIR DESPUES DEL ACORDE 5 SIGUE,MISMO ACORDE 1,USTEDES AGAN LA INTRO,ACOMODADA COMO ESTAN AI,PORQUE LOS ACORDES NO LOS SE ALGUNOS,QUE SON CON CEJILLAS,PERO BUENO SE LOS VOY A PONER COMO TABLATURAS,OJO,SE LOS VOY A PONER EN NUMEROS LOS ACORDES,EN LA LETRA DE POR UNA MIRADA,POR EJ 1,VAYAN ABAJO,MIREN EL GRAFICO ACORDE 1,SI DICE 2 BUSCAN ACORDE 2,BUENO ESPERO QUE ME AYAN ENTENDIDO,CUALQUIER COSA MANDENME UN MENSAJE AQUIE!!!!SALUDOS!!!!!

AQUI LA INTRO:

/-2-----------          /-2----------
/-2-----------          /-3----------
/-2----------- ACORDE 1 /-2---------- ACORDE 2
/-4-----------          /------------
/-4-----------          /------------
/-2-----------          /------------

/-------------          /------------
/-------------          /-2----------
/-1----------- ACORDE 3 /-2---------- ACORDE 4
/-2-----------          /-2----------
/-2-----------          /------------
/-------------          /------------

/-2-----------          /-2----------
/-3-----------          /-2----------
/-4----------- ACORDE 5 /-2---------- MISMO ACORDE 1
/-4-----------          /-4----------
/-2-----------          /-4----------
/-2-----------          /-2----------

/-4-----------          /-2----------
/-6-----------          /-2----------
/-6----------- ACORDE 6 /-2---------- MISMO ACORDE 1
/-6-----------          /-4----------
/-4-----------          /-4----------
/-4-----------          /-2----------

/-2-----------                /-2----------
/-3-----------                /-2----------
/-4----------- MISMO ACORDE 5 /-2---------- MISMO ACORDE 1
/-4-----------                /-4----------
/-2-----------                /-4----------
/-2-----------                /-2----------

/-4-----------                /-2----------
/-6-----------                /-2----------
/-6----------- MISMO ACORDE 6 /-2---------- MISMO ACORDE 1
/-6-----------                /-4----------
/-4-----------                /-4----------
/-4-----------                /-2----------

..........Y BUEN TODO ESTOS ACORDES,HACEN LA LA INTRO,ACOMODADO COMO SE LOS ISE,I BUENO LOS ACORDES SE LOS PONGO EN NUMEROS
EN LA LETRA DE CARLOS RAMON FERNANDEZ.





Calificar esta versión:
Aviso: Este fichero es trabajo propio de su transcriptor y representa su interpretación personal de la canción. El material contenido en esta página es para exclusivo uso privado, por lo que se prohibe su reproducción o retransmisión, así como su uso para fines comerciales.
Más versiones de Por Una Mirada, Carlos Ramon Fernandez
Por Una Mirada
acordes
Por Una Mirada (ver 2)
acordes
Descubre más canciones de Carlos Ramon Fernandez