Cuatro Letras Para Un Verso, Carlos Ramon Fernandez (tablatura) (ver 2)

Autor: nestor123 | 23213 visualizaciones



1---6--6--6--6-8-8-6-4---7--7--7--7-9-9-7-5---6--6--6--6-8-8-6-4--
2-----------------------------------------------------------------
3-6--6--6--6-----------6--6--6--6-----------6--6--6--6------------
4-----------------------------------------------------------------
5-----------------------------------------------------------------
6-----------------------------------------------------------------

1-10-11-10-8-6-5-3-2-3-------------------------------4-6-8-6-4-6--
2------------------------0---------------7-7-7-5-3----------------
3----------------------0---7-9-7-6-9-7-6-----------4--------------
4-----------------------------------------------------------------
5-----------------------------------------------------------------
6-----------------------------------------------------------------

1-------6--6--6--6--8-8-6-4-10-11-10-8-6-5-3-2-3------------------
2---0--------------------------------------------3-4-3-1----------
3-0---7--6--6--6-----------------------------------------3-2-0----
4-----------------------------------------------------------------
5-----------------------------------------------------------------
6-----------------------------------------------------------------





Comentarios del colaborador: ESPERO QUE LES SIRVA Y LES AYA GUSTA DESDE SALDUNGARAY GRACIAS

Calificar esta versión:
Aviso: Este fichero es trabajo propio de su transcriptor y representa su interpretación personal de la canción. El material contenido en esta página es para exclusivo uso privado, por lo que se prohibe su reproducción o retransmisión, así como su uso para fines comerciales.
Más versiones de Cuatro Letras Para Un Verso, Carlos Ramon Fernandez
Cuatro Letras Para Un Verso
tablatura
Cuatro Letras Para Un Verso (ver 2)
tablatura
Descubre más canciones de Carlos Ramon Fernandez