Tu No Sabes Que Tanto, Carlos Baute (acordes)

Autor: FrankLobo | 36247 visualizaciones

amcddmdoffaglamremsol
Esta canción va para ti mi princesa te amo Deniss.... Atentamente Frank Yahir Mamani Barrantes [El Lobo]

Espero les guste esta rola de Carlitos Baute



_ acordes ____________
|                       |
| C:      032010 [Do]   |
| F:      133211 [Fa]   |
| Dm:     000231 [Rem]  |
| G:      320003 [Sol]  |
| Am:     002210 [Lam]  |
|_______________________|


[intro]:
    C
E-||--------------------|--------------------|
B-||--------------------|--------------------|
G-||-7h9-9--7--7---7h9--|-7h9-9--7--7--9--7-9|
D-||--------------------|--------------------|
A-||--------------------|--------------------|
E-||--------------------|--------------------|

    F
E-||------------------|------------------|
B-||------------------|------------------|
G-||10----9h10-9-9h10-|-----9h10-9-9h10-9|
D-||------------------|------------------|
A-||------------------|------------------|
E-||------------------|------------------|

    Dm                               G
E-||---------------|----------------|------------------|
B-||------6-6s5-5s6|6------6-6s5-5s3|3-----------------|
G-||7-----7-7s5-5s7|7------7-7s5-5s4|4-----------------|
D-||---------------|----------------|------------------|
A-||---------------|----------------|------------------|
E-||---------------|----------------|------------------|

    F       G
E-||------------------|
B-||6-------8---------|
G-||---5-------7------|
D-||------7-------9---|
A-||------------------|
E-||------------------|


                 C
Tú no sabes que tanto quiero verte
                   G
Ni las noches que desvelé mi mente
                   Am
En mis sueños tú siempre estás presente
             F
Que difícil no tenerte

                    C
Sé que piensas marcharte, lo sabía
                   G
Que me dabas la espalda y no hablarías
                 Am
Estaré aquí esperando hasta que tú decidas
          F
Tú no sabrías que feliz me harías

D                       G
   No se si esto te lo dije
                       C
Que justo antes de dormirme
                      Am
Yo le rezo a tos mis santos
                            F
por que estés siempre a mi lado
                  G   F
Yo seré tu fiel amado

                 C
Tú no sabes que tanto yo deseo tu cuerpo
                 F
Tú no sabes que tanto necesito tus besos
                 Dm
Tú no sabes que tanto le he pedido a los santos
                 G
Tú no sabes que tanto yo te quiero a mi lado


[bridge]:
    C                                         F       G
E-||--------------------|--------------------|------------------|
B-||--------------------|--------------------|6-------8---------|
G-||-7h9-9--7--7---7h9--|-7h9-9--7--7---7h9--|---5-------7------|
D-||--------------------|--------------------|------7-------9---|
A-||--------------------|--------------------|------------------|
E-||--------------------|--------------------|------------------|


               C
Es posible seguir más adelante
                   G
Te pregunto, no quiero ilusionarme
               Am
He pecado tal vez por descuidarte
              F
O quizás los dos fuimos culpables


                 C
Tú no sabes que tanto quiero darte
                   G
Quiero amarte enterita como antes
                    Am
Nunca han sido tan malas las segundas partes
                 F
[Es]pero que un día sepas perdonarme

D                       G
   No se si esto te lo dije
                       C
Que justo antes de dormirme
                      Am
Yo le rezo a tos mis santos
                            F
por que estés siempre a mi lado
                  G   F
Yo seré tu fiel amado


                 C
Tú no sabes que tanto yo deseo tu cuerpo
                 F
Tú no sabes que tanto necesito tus besos
                 Dm
Tú no sabes que tanto le he pedido a los santos
                 G
Tú no sabes que tanto yo te quiero a mi lado


F                       G
   Envié unas cuantas flores
                   C
A la puerta de tu casa
                          Am
Y una carta en la que expreso
                    F
parte de mis sentimientos
                        G    F
En la que dice que te quiero

                 C
Tú no sabes que tanto yo deseo tu cuerpo
                 F
Tú no sabes que tanto necesito tus besos
                 Dm
Tú no sabes que tanto le he pedido a los santos
                 G
Tú no sabes que tanto yo te quiero a mi lado


[outtro]:
    C
E-||--------------------|--------------------|
B-||--------------------|--------------------|
G-||-7h9-9--7--7---7h9--|-7h9-9--7--7--9--7-9|
D-||--------------------|--------------------|
A-||--------------------|--------------------|
E-||--------------------|--------------------|

    F
E-||------------------|------------------|
B-||------------------|------------------|
G-||10----9h10-9-9h10-|-----9h10-9-9h10-9|
D-||------------------|------------------|
A-||------------------|------------------|
E-||------------------|------------------|

    Dm                               G
E-||---------------|----------------|------------------|
B-||------6-6s5-5s6|6------6-6s5-5s3|3-----------------|
G-||7-----7-7s5-5s7|7------7-7s5-5s4|4-----------------|
D-||---------------|----------------|------------------|
A-||---------------|----------------|------------------|
E-||---------------|----------------|------------------|

    F       G          C
E-||------------------|-----0---|
B-||6-------8---------|----1----|
G-||---5-------7------|---0-----|
D-||------7-------9---|--2------|
A-||------------------|-3-------|
E-||------------------|0--------|


Saludos para la especialidad de Literatura de la UNHEVAL
Calificar esta versión:
Aviso: Este fichero es trabajo propio de su transcriptor y representa su interpretación personal de la canción. El material contenido en esta página es para exclusivo uso privado, por lo que se prohibe su reproducción o retransmisión, así como su uso para fines comerciales.
Más versiones de Tu No Sabes Que Tanto, Carlos Baute
Tu No Sabes Que Tanto
acordes
Tu No Sabes Que Tanto
tablatura
Descubre más canciones de Carlos Baute