La Casa, Caramelos De Cianuro (tablatura)

Autor: Anónimo | 23886 visualizaciones



Intro - (Guitarra Acústica)
C            E            F            Dm      x2
C            E           Am            Dm
C            G         (C5 C5 - D5 - C5 - A5 - C) riff 1

Nota: Los acordes del tema son hechos todos con barra, no abiertos
comenzando así el Do en el traste 8 de la 6ta cuerda.
El sol que se hace en el intro y las estrofas es con la
tónica en el traste 10 de la 5ta cuerda.

   C5   D5       C
e|---------------8-------|
B|---------------8-------|
G|-5--5h7p5------9-------|----> Riff 1
D|-5--5h7p5--7---10------|
A|-----------7---10-----  |
E|---------------8-------|

se repite el intro con la guitarra acústica

Parte 2 del intro (Guitarra Eléctrica)

e|------------------------------------|
B|------------------------------------|
G|------------4----------5----5s7--5--|
D|--------5---5----5-5h7---7--5s7--5--|
A|-3-3h7------5-----------------------|
E|------------------------------------|

e|----------------------------------|
B|----------------------------------|
G|------------4----------5----5s7---|
D|--------5---5----5-5h7---7--5s7---|
A|-3-3h7------5---------------------|
E|----------------------------------|

e|----------------------------------|
B|----------------------------------|
G|------------4---------------------|
D|--------5---5----5h7-5------------|
A|-3-3h7------5----5h7-5--7-8-------|
E|----------------------------------|

e|---------------------------------|
B|-----------------5-5h6-5-----5---|
G|-----------------5-5h6-5--7--5---|
D|--------5-----------------9------|
A|-3-3h7------5--------------------|
E|---------------------------------|


1ra Estrofa (Guitarra Acústica)

C             E              F           Dm
Ahora salgo y me emborracho veo la noche hacerse día
C         E              F       Dm
desayuno con un cacho y con una fría
C     E            Am     Dm         C    G          (riff 1)
   desde que te haz ido   mi vida ha sido control y descontrol

C            E            F              Dm
ya vi todas las de ovni, las de sangre y las de zombis
C         E             F         Dm
en estado vegetal frente al televisor   inmóvil
C       E            Am    Dm          C      G     (riff 1)
   cada noche es mas negra y ya no me alegra ni el  alcohol



Coro:

              F                  E               Am            Dm
Por que esta casa ya no es un hogar desde que te fuiste sola y triste
         F              C                  Am                G
paredes frías, camas vacías, siento sin tu aliento el tiempo lento
              F                  E                Am           Dm
por que esta casa ya no es un hogar desde que te fuiste sola y triste
          F     C            Am                   G               (riff 1)
paredes frías, camas vacías, tanto tengo y tanto me arrepiento

(se repite el intro)

2da estrofa
C               E           F           Dm
y ahora voy tratando de evitar algo que me conmueva,
C     E                F         Dm
hibernando como un animal en una cueva,
C        E            Am   Dm         C     G      (riff 1)
     desde que te haz ido  mi vida ha sido soledad desolación

C            E            F              Dm
ya vi todas las de ovni, las de sangre y las de zombis
C         E             F         Dm
en estado vegetal frente al televisor   inmóvil
C       E            Am    Dm          C      G     (riff 1)
   cada noche es mas negra y ya no me alegra ni el  alcohol

Coro:

              F                  E               Am            Dm
Por que esta casa ya no es un hogar desde que te fuiste sola y triste
         F              C                  Am                G
paredes frías, camas vacías, siento sin tu aliento el tiempo lento
              F                  E                Am           Dm
por que esta casa ya no es un hogar desde que te fuiste sola y triste
          F              C            Am                   G
paredes frías, camas vacías, tanto tengo y tanto me arrepiento


Puente
F           E          Am          G  ] x2


F        E                  Am           G
esta casa no es hogar desde que te fuiste nada más
      F        C    Am                      G
es fría, es vacía, siento sin tu aliento el tiempo lento...

F        E                 Am            G
esta casa no es hogar desde que te fuiste nada más
     F         E    Am                  G
120es fría, es vacía, tanto tengo y tanto me arrepiento...

Outro:
F           E          Am          G

C

En los coros la guitarra eléctrica toca el acorde solo, todos con barra
y tiene un arreglo en 2 partes:
                          Am                G
arreglo 1 - Siento sin tu aliento el tiempo lento

                    e|-5----------------3--|
                    B|---5--------------3--|
                    G|-----5-----4h5p4-----| -- empieza justo en La menor
                    D|-------7-------------|

                  Am                G
arreglo 2 - tanto tengo y tanto me arrepiento

                   e|-5---------------|
                   B|---5----------8--|
                   G|-----5---5s7--7--|

Después del primer coro el arreglo es igual que el intro,
exceptuando el 4toriff

D|--------5----------------|
A|-3-3h7-----5---------3---|
E|---------------0-1-3-----|


Al final de la segunda estrofa también hay un arreglo de guitarra eléctrica
justo donde dice:
Dm          C      G     (riff 1)
y ya no me alegra ni el  alcohol

G|-12s14-12----------------------10---9----|
D|-12s14-12--12s14-10------------10---10---|
A|-----------12s14-10--10-10h12-------10---|
E|------------------------------------8----|


Solo que se hace en el puente

G|-5s10-----12p9---------7-----|
D|------------------2s7--------|

G|-7s10-----12p9---------------------|
D|-----------------5s10--10p9h10p9---|


El final de la canción va igual que la guitarra acústica pero a puras
corcheas y con ligeros arreglos de 5tas y 4tas


Esta canción va dedicada a mis alumnos, a ambos Daniel y Sebastian
 a Claudia a Carla y al rock Venezolano ya que había perdido
la esperanza en esta banday su música y me sorprendieron con
este buen tema.

También a la gente de mi agrupación de rock sinfónico fusión
 Utopic Avenue, ya pronto saldrá el disco muchachos!

Manuel Mirabal - Profesor de música, voz líder y guitarra electroacústica
en Utopic Avenue y estudiante de derecho UCV





Calificar esta versión:
Aviso: Este fichero es trabajo propio de su transcriptor y representa su interpretación personal de la canción. El material contenido en esta página es para exclusivo uso privado, por lo que se prohibe su reproducción o retransmisión, así como su uso para fines comerciales.
Más versiones de La Casa, Caramelos De Cianuro
La Casa
acordes
La Casa (ver 2)
acordes
La Casa
tablatura
Descubre más canciones de Caramelos De Cianuro