Interpol, Caramelos De Cianuro (tablatura)

Autor: Anónimo | 31639 visualizaciones



~=dejar sonar
x= mute(no sonar)
h= hammer on
p= pull off


Intro:(x2)
e|-2-2-x--0-0--0h1p0-x-1-1-x-0-0-0h1p0-1-1-1-1-
B|-3-3-x--1---1------x-1-1-x-1--1------3-3-3-3- 
G|-1-1-x--0----------x-3-3-x-2---------3-3-3-3- 
D|-0-0-x--2----------x-2-2-x-2---------3-3-3-3-
A|-0-0-x--3----------x-2-2-x-0---------1-1-1-1-
E|-x-x-x--x----------x-1-1-x-x---------x-x-x-x-

e|-0~-0h1p0------------------------------------
B|-1~--1--------------------------------------- 
G|-0~------------------------------------------ 
D|-2~------------------------------------------
A|-3~------------------------------------------
E|-x-------------------------------------------

Verso:
e|-2-2-x--0-0--0h1p0-x-1-1-x-0-0-0h1p0-1-1-1-1-
B|-3-3-x--1---1------x-1-1-x-1--1------3-3-3-3- 
G|-1-1-x--0----------x-3-3-x-2---------3-3-3-3- 
D|-0-0-x--2----------x-2-2-x-2---------3-3-3-3-
A|-0-0-x--3----------x-2-2-x-0---------1-1-1-1-
E|-x-x-x--x----------x-1-1-x-x---------x-x-x-x-

e|-0~-0h1p0------------------------------------
B|-1~--1--------------------------------------- 
G|-0~------------------------------------------ 
D|-2~------------------------------------------
A|-3~------------------------------------------
E|-x-------------------------------------------

Coro:
e|-2-2-2-2-0-0-1-1-1-1-0-0-0-0-0-0-0-0-0-------
B|-3-3-3-3-1-1-1-1-1-1-1-1-1-1-1-1-1-1-1------- 
G|-1-1-1-1-0-0-2-2-2-2-2-2-2-2-0-0-0-0-0------- 
D|-0-0-0-0-2-2-3-3-3-3-2-2-2-2-2-2-2-2-2-------
A|-0-0-0-0-3-3-3-3-3-3-0-0-0-0-3-3-3-3-3-------
E|-x-x-x-x-x-x-1-1-1-1-x-x-x-x-x-x-x-x-x-------

Intermedio:(solo de cuerdas)
e|-2-2-2-2-0-0-1-1-1-1-0-0-0-0-0-0-0-0-0-------
B|-3-3-3-3-1-1-1-1-1-1-1-1-1-1-1-1-1-1-1------- 
G|-1-1-1-1-0-0-2-2-2-2-2-2-2-2-0-0-0-0-0------- 
D|-0-0-0-0-2-2-3-3-3-3-2-2-2-2-2-2-2-2-2-------
A|-0-0-0-0-3-3-3-3-3-3-0-0-0-0-3-3-3-3-3-------
E|-x-x-x-x-x-x-1-1-1-1-x-x-x-x-x-x-x-x-x-------

that's all.........





Calificar esta versión:
Aviso: Este fichero es trabajo propio de su transcriptor y representa su interpretación personal de la canción. El material contenido en esta página es para exclusivo uso privado, por lo que se prohibe su reproducción o retransmisión, así como su uso para fines comerciales.
Más versiones de Interpol, Caramelos De Cianuro
Interpol
acordes
Interpol
tablatura
Descubre más canciones de Caramelos De Cianuro