Imaginar, Caramelos De Cianuro (tablatura)

Autor: rene rivera rodriguez | 27406 visualizaciones



Am   G     F            Am     G     F             Am    G
Ambiciosos imprudentes, fuimos despojándonos, y el suelo frío
F       Am   G      F         Am   G     F            Am    G
Recibía cáscaras Vacías y nos sumergimos en el néctar dulce del
   F          Am    G       F             Am   G      F
Pecado, vamos descendiendo, descendiendo, casi sin tener que respirar.

Am   G     F
Y siempre puedo imaginar (x3)

Am   G     F          C
Y siempre puedo imaginar (aquí comienza la distorsión)

C      G            F
Aunque se que nunca pasará (x4)(todo esto es distorsionado)


Nota: esto que viene lo toca el bajo pero pude ser tocado en la guitarra asi.

e|----------------------|
B|----------------------|
G|----------------------|
D|----------------------|
A|----------------------|
E|--5---3-3---1---0-0---| (x2)

SOLO:

e|------------------------------------------------------|
B|-----1-----1-----1-----3p1-----1-----1-----1-----3p1--|
G|-0-0---0-0---0-0---0-0-----0-0---0-0---0-0---0-0------|
D|------------------------------------------------------|
A|------------------------------------------------------|
E|------------------------------------------------------|

e|-----------------------------------------------------------------|
B|-----1-----1-----1-----3p1-----1-----1-----1-----3p1-0-1?-0-1-0--|
G|-0-0---0-0---0-0---0-0-----0-0---0-0---0-0---0-0-----------------|
D|-----------------------------------------------------------------|
A|-----------------------------------------------------------------|
E|-----------------------------------------------------------------|

e|-----1-0-0-3-0-0-1-0-0-3-0-0-1-0---1-0-0-3-0-0-1-0-0-3-0-0-1-0---|
B|-(0)-------------------------------------------------------------|
G|---------------------------------------------------------------2-|
D|-----------------------------------------------------------------|
A|-----------------------------------------------------------------|
E|-----------------------------------------------------------------|


e|---------------------------------------------------------------------|
B|-----1-0-1-0----1-0-0p1----0p1---------------------------------------|
G|-(2)---------0----------2------2-------------------------------------|
D|-----------------------------------3-2-3-2---------------------------|
A|-------------------------------------------3-3p5-3-2-0---------------|
E|-------------------------------------------------------3-3---1---0-0-|

e|-8-5-5-8-8/10?10/12-12-13-13/15-15-13-13-12-8------8---------------|
B|----------------------------------------------8-10---10--10-8-8-8--|
G|-------------------------------------------------------------------|
D|-------------------------------------------------------------------|
A|-------------------------------------------------------------------|
E|-------------------------------------------------------------------|

e|-------------------------------------------------------------------|
B|-------------------------------------------------------------------|
G|-10-10-9-10-9------------------------------------------------------|
D|--------------10---10/12---------10-------10--------10-------12p10-|
A|---------------------------10-10----10-10-----10-10----10-10-------|
E|-------------------------------------------------------------------|

e|-------------------------------------------------------------------|
B|-------------------------------------------------------------------|
G|-------------------------------------------------------------------|
D|-------10-------10-------10-------12p10-------10-------10-------10-|
A|-10-10----10-10----10-10----10-10-------10-10----10-10----10-10----|
E|-------------------------------------------------------------------|

e|-----------------------------------------------------------------|
B|-----------------------------------------------------------------|
G|-----------------------------------------------------------------|
D|-(10)------12p10-------10-------10----12p10----10----10\9--------|
A|-----10-10-------10-10----10-10----10-------10----10-------------|
E|-----------------------------------------------------------------|

Nota: el acompañamiento del solo son los acordes de la intro o también
puede ser el bajo antes del solo:

Am   G     F
Y siempre puedo imaginar (x3)

Am   G     F          C
Y siempre puedo imaginar (aquí comienza la distorsión)

C      G            F
Aunque se que nunca pasará (x4)(todo esto es distorsionado)

Outro:
Esto es distorsionado también.
C C Am Am G G F F (x4 y termina.)





Comentarios del colaborador: http://lacuerda.net/tabs/c/caramelo/imaginar-2.shtml

Calificar esta versión:
Aviso: Este fichero es trabajo propio de su transcriptor y representa su interpretación personal de la canción. El material contenido en esta página es para exclusivo uso privado, por lo que se prohibe su reproducción o retransmisión, así como su uso para fines comerciales.
Más versiones de Imaginar, Caramelos De Cianuro
Imaginar
acordes
Imaginar
tablatura
Descubre más canciones de Caramelos De Cianuro