Baby Cohete, Caramelos De Cianuro (bajo)

Autor: Anónimo | 33881 visualizaciones



bueno muchachos aki les dejo esta tab de bajo de baby cohete
yo creo q esta perfecta y si no son unas tonterias ke le faltan
bueno espero ke la disfruten hay se las dejo

Intro

(x2)
G|------------------------------------------|
D|-------------------------0-0--------------|
A|-3-3—1-1--------3-3-—1-1------------------|
E|---------1-1------------------------------|


 Verso

G|----------------------------------------------------------|
D|----------------------------------------------------------|
A|-3-3-1-1-----3-3-----------3-3-1-1-5-5—--3-3---5-5-5------|
E|---------1-1------1-1-1-----------------------------------|


G|----------------------------------------------------------|
D|----------------------------------------------------------|
A|-3-3-1-1-----3-3-----------3-3----------------------------|
E|---------1-1------1-1-1-----------------------------------|


G|----------------------------------------------------------|
D|----------------------------------------------------------|
A|-3-3-1-1-----3-3-----------3-3-1-1-5-5---3-3---5-5-5------|
E|---------1-1------1-1-1-----------------------------------|


G|----------------------------------------------------------|
D|----------------------------------------------------------|
A|-3-3-1-1-----3-3-----------3-3-1-3-3-1-3-3----------------|
E|---------1-1------1-1-1-----------------------------------|

Coro

G|---------------------------------------------|
D|---------------------------------------------|
A|-33333333-11111111--------55555555-----------|
E|------------------11111111-------------------|

|--------------------------------|
|--------------------------------|
|-33333333-11111111--------5-----|
|------------------11111111------|

G|---------------------------------------------|
D|---------------------------------------------|
A|-3-333-/5/-11111111----------55555555--------|
E|--------------------11111111-----------------|

|--------------------------------|
|--------------------------------|
|-33333333-11111111--------5-----|
|------------------11111111------|


Intro(x2)

Verso

Coro

Interludio

G|------------------------------------------------|
D|------------------------------------------------|
A|-3333333-/8/-8888888-5555555--------------------|
E|------------------------------------------------|



G|------------------------------------------------|
D|------------------------------------------------|
A|-35555555-35555555-35555555--33333333-88888888-5|
E|------------------------------------------------|


Coro y fin





Calificar esta versión:
Aviso: Este fichero es trabajo propio de su transcriptor y representa su interpretación personal de la canción. El material contenido en esta página es para exclusivo uso privado, por lo que se prohibe su reproducción o retransmisión, así como su uso para fines comerciales.
Más versiones de Baby Cohete, Caramelos De Cianuro
Baby Cohete
acordes
Baby Cohete
bajo
Descubre más canciones de Caramelos De Cianuro