Asunto Sexual, Caramelos De Cianuro (bajo)

Autor: Anónimo | 36707 visualizaciones



Esta canción es una de las mejores de lo caramelos.. tuve la oportunidad de

verlos en guayaquil y la verdad es que suenan bien en vivo.. esta linea en

muy sencilla y pude apreciar claramente como la tocaba luis...
espero que la disfruten...
algo muy importante es afinar en Re porque el sonido es diferente.. las

cuerdas vibran más asi que se debe tocar o vitelear los mas cerca del puente

del bajo....
como de costumbre se la dedico a mis compañeros del grupo...


Afinación en Re
!= apagar la nota

intro

F|---------------------------------------------------|
C|-------------9--7----------------------------------|
G|--2!--2!-----------9--7--5--4--2-------------------|
D|---------------------------------------------------|



    ya lo ves...............   ... estamos solos

F|---------------------------------------------------------------|
C|------------------------------------------9--7-----------------|
G|--2!--------------2!----------------------------9--7--5--4--2--|
D|---------------------------------------------------------------|


     esto    es   un     asunto     sexual
F|---------------------------------------------------------------|
C|------------------------------------------9--7-----------------|
G|--2!--------------2!----------------------------9--7--5--4--2--|
D|---------------------------------------------------------------|


y si tu me trasta bien y yo ti tambien estaremos juntos

esto es un asunto ...........

"aqui cambia"

   y crei poder cambiar el mundo con nacer

F|---------------------------------------------------|
C|---------------------------------------------------|
G|---5-5-5-5-5-0-0-0-0-0-----------5-5-5-5-5---------|
D|------------------------3-3-3-3-3------------------|


y su tu me tratas ......


ya slimos......


esto es un asunto ...........



y crei poder cambiar el mundo.........



esto es un asunto ...........


Viva Venezuela
Viva Ecuador!!!!!!





Calificar esta versión:
Aviso: Este fichero es trabajo propio de su transcriptor y representa su interpretación personal de la canción. El material contenido en esta página es para exclusivo uso privado, por lo que se prohibe su reproducción o retransmisión, así como su uso para fines comerciales.
Más versiones de Asunto Sexual, Caramelos De Cianuro
Asunto Sexual
acordes
Asunto Sexual
bajo
Descubre más canciones de Caramelos De Cianuro