Punk Sin Cresta, Carajo (tablatura)

Autor: lorenzomartinez8 | 22565 visualizaciones



INTRO
F# G# A#  BBB
F# G# A# B D#D#

F# G# A#  BBB
F# G# A# B BBB
El tiempo ya paso...
    |-------------------------------------||
    |-------------------------------------||
    |-------------------------------------||
    |-------------------------------------||2 VECES
    |-----------------------66------------||
    |-22-4-6/77---22-4-6/77---------------||

El barrio cambio y vos tmb...

F# G# A#  BBB
F# G# A# B D#D#


el bardo se mudo...
F# G# A#  BBB
F# G# A# B BBB


Dias de gloria!
A# A# A#

    |-------------------------------------||
    |-------------------------------------||
    |-11/12/11---7-7----------------------||
    |-*-/*/-*----*-*----------------------||
    |-9/10/-9----5-5----------------------||
    |-------------------------------------||

en la memoria..
A# A# A#
    |-------------------------------------||
    |-------------------------------------||
    |-11/12/11-1414-----------------------||
    |-*-/*/-*---*-*-----------------------||
    |-9/10/-9--1212-----------------------||
    |-------------------------------------||

fue la calle...
F# C#
F# B
F# C#
F# B
F# G#

intermedio

F# G# A#  BBB
F# G# A# B D#D#

F# G# A#  BBB
F# G# A# B BBB

el tiempo ya paso
     -------------------------------------||
    |-------------------------------------||
    |-------------------------------------||
    |-------------------------------------||
    |-------------------------------------||
    |--9-8-6-4-3-2-1---9-8-6-4-3-2-9------||(bajo)

Dias de gloria!
A# A# A#

    |-------------------------------------||
    |-------------------------------------||
    |-11/12/11---7-7----------------------||
    |-*-/*/-*----*-*----------------------||
    |-9/10/-9----5-5----------------------||
    |-------------------------------------||

en la memoria...
A# A# A#
    |-------------------------------------||
    |-------------------------------------||
    |-11/12/11-1414-----------------------||
    |-*-/*/-*---*-*-----------------------||
    |-9/10/-9--1212-----------------------||
    |-------------------------------------||

fue la calle...
F# C#
F# B
F# C#
F# B
F# G#

solo
    |-------------------------------------||
    |-------------------------------------||
    |--9/10-6----9/1010/11/9-13-----------||
    |--*/*--*----*/*-*/*-/*--*------------||  2 VECES
    |--7/8--4----7/8-8/9-/8--11-----------||
    |-------------------------------------||

vieja historia sin final...
A#  F# C# G#

salvaje juventud...
A#x  F#x C#x G#x

fue la calle..
F# C#
F# B
F# C#
F# B
F# G#

termina en C#

si tiene errores , me avisan :)





Comentarios del colaborador: atte la cuerda :)

Calificar esta versión:
Aviso: Este fichero es trabajo propio de su transcriptor y representa su interpretación personal de la canción. El material contenido en esta página es para exclusivo uso privado, por lo que se prohibe su reproducción o retransmisión, así como su uso para fines comerciales.