La Parca, Carajo (tablatura)

Autor: zzzz | 36656 visualizaciones



intro
C--------------------------
G--------------------------
Eb----------------4444-----
Bb------------4444--------- son todos harmonicos naturales
F---------4444-------------
Bb---4444------------------

break
C-----------------------------
G------------------------x8---
Eb---------------0------------
Bb--44--45---44---------------
F---22--23-0-22---------------
Bb----------------------------

verso
C-------------------------------
G-------------------------------------
Eb------------------------------------
Bb---------------------------------3--
F----22--23-0-22--23-0-22-23-0-22--1--
Bb---22--23-0-22--23-0-22-23-0-22-----

break

verso2

break

estribillo
C-------------------------------------------
G------8--10----------------------8--10-----
Eb-----7--9-----------------------7--9------
Bb--2--5--7--0--2--320-320-----2--5--7--5-2-
F---2--5--7--0--2--320-320-----2--5--7--3-0-
Bb--2--5--7--0--2--320-320-----2--5--7------

break

verso 3

break

estribillo

C--------------------------
G--------------------------
Eb-------------------10----
Bb-22-02-x3--22--02--------
F--22-02-----22--02--8-----
Bb-22-02-----22--02--------

                     final
C-------------------|---------
G-------------------|---------
Eb--------------10--|---10^---
Bb--22-23-0-22------|---------
F---22-23-0-22--8---|----8^---
Bb--22-23-0-22------|---------





Calificar esta versión:
Aviso: Este fichero es trabajo propio de su transcriptor y representa su interpretación personal de la canción. El material contenido en esta página es para exclusivo uso privado, por lo que se prohibe su reproducción o retransmisión, así como su uso para fines comerciales.