Joder, Carajo (tablatura)

Autor: GustyG2008 | 44952 visualizaciones



JODER

INTRO
D-------------------------------------
A----------------------------------
F------------------------x3---------------------
C-----------------------------------------------
G------------0---00-00-------------------------
C--3430-3430-0---00-00--------3430-3430-----------

PM               .. ..

Uohaaaauajaajau! (g)

D-------------------------------------
A----------------------------------------------
F----------------------------------------------
C--------------------------------x2-------------
G------------0-000000--00--0000----------
C--3430-3430-0-000000--00--0000-----------------------

PM             ......  .. ....

D-----------(11)-------------------------------------------------------
A-------------------------------------------(12)--------------------------
F-----------------------------------------------------------------------
C-----------------------------------------------------------------------
G-----------0---000000-00-0000-------------0---000000--00--0000------------
C-3430-3430-0---000000-00-0000---3430-3430-0---000000--00--0000--3430-3430-

VERSO (Adrenalina, impulso…)
D-----------------------------------------------
A---------------------------------------------
F----------------------------------------------
C--5555-5P3----55555-6-5-3--3/55555-----x2-----------
G-------------------------5-------------------
C----------------------------------------------

RIFF1           (joder!)                        (joder!)
D--------------------------------------------------------------
A----------------------------------------------------------------
F---------------------------------------------------------------
C----------------------------------------------------------------
G--0-000000--00--0000--------------0-0000000--00--0000------------
C--0-000000--00--0000--3430-3430---0-0000000--00--0000-3430-3430-

(excusa de vivir…)
D-----------------------------------------------
A---------------------------------------------
F----------------------------------------------
C--5555-5P3----55555-6-5-3--3/55555----------------
G-------------------------5-------------------
C----------------------------------------------


                 (deshaciendo interrogantes)
D-----------------4--8---11--14-----------------------------
A-----------------3--7---10--13-------------------------
F-----------------------------------------
C--55555----------------------------
G-----------------------------------------
C----------------------------------------------

ESTRIBILLO (extrema reaccion…)
D--------------------------------------------------------------------------
A------------------------------------------------------------------------
F-------6-7----------5-6-7---------------------6-7-----------5-6-7---------
C-------6-7----------5-6-7---------x3----------6-7-----------5-6-7--------
G-6-3-0-4-5----6-3-0-3-4-5---------------6-3-0-4-5----6-3-0--3-4-5---
C-6-3-0--------6-3-0------(3)(3)(3)------6-3-0--------6-3-0-------(3)(3)(3)
Pm                         .  .  .                                  .  .  .
 VERSO2=VERSO

VERSO
(atravaseando laberintos…)
D-----------------------------------------------
A---------------------------------------------
F----------------------------------------------
C--5555-5P3----55555-6-5-3--3/55555-----x2-----------
G-------------------------5-------------------
C----------------------------------------------
RIFF1           (joder)                          (joder)
D--------------------------------------------------------------
A----------------------------------------------------------------
F---------------------------------------------------------------
C----------------------------------------------------------------
G--0-000000--00--0000--------------0-0000000--00--0000------------
C--0-000000--00--0000--3430-3430---0-0000000--00--0000-3430-3430-

(tan facile es perder…)
D-----------------------------------------------
A---------------------------------------------
F----------------------------------------------
C--5555-5P3----55555-6-5-3--3/55555----------------
G-------------------------5-------------------
C----------------------------------------------

                 (buscando nuestro propio bienstar)
D-----------------4--8---11--14-----------------------------
A-----------------3--7---10--13-------------------------
F-----------------------------------------
C--55555----------------------------
G-----------------------------------------
C----------------------------------------------


ESTRIBILLO2
(extrema raccion…)
D---------------------------------------------------
A------------------------------------------
F-------6-7----------5-6-7-----------------------
C-------6-7----------5-6-7---------x8----
G-6-3-0-4-5----6-3-0-3-4-5-------------000---
C-6-3-0--------6-3-0------(3)(3)(3)----000--
Pm                         .  .  .     ...







             (Vas a reir vas a llorar..)
D---------------------------
A---------------------------------
F-----------------------------------
C------------------x2--------------
G------------0-00---
C--3430-3430-0-00--------------

             (vas a caer y a levantarte…)
D-------------------------------------
A----------------------------------------------
F----------------------------------------------
C---------------------------------------------
G------------0-000000--00--0000----------
C--3430-3430-0-000000--00--0000-----------------------

PRE-ESTRIBILLO
D-------------------------------------
A---------------12-15-18-----------------
F--------10-13----------------------
C-----12------------------------
G--11------------------------
C-------------------------------
(FESTEJEMOS!)


ESTRIBILLO2
(Extrema reaccion…)
D---------------------------------------------------
A------------------------------------------
F-------6-7----------5-6-7-----------------------
C-------6-7----------5-6-7---------x8----
G-6-3-0-4-5----6-3-0-3-4-5-------------0000---
C-6-3-0--------6-3-0------(3)(3)(3)----0000--
Pm                         .  .  .     ....

D-----0--0-----------------------------
A-----0--0------------------------------------
F-----7--7--------------------------------------
C--0--7--6-------------------------------------
G--0--5--5---1111111111111111-----------------
C--0---------1111111111111111--------------------
             ................
(TODOS!!)








Final
     (hey!)
D-----------------------------------------------------------------------
A------------------------------------------------------------------------
F---------------------------------------------------------------------
C----------------------------------x4--------------------0---------------
G-----5---------------3----------------1111111111111111--0----------
C-000----00-0-6--00-0---00-0—666/7-----1111111111111111--0---3430-3430--0






Calificar esta versión:
Aviso: Este fichero es trabajo propio de su transcriptor y representa su interpretación personal de la canción. El material contenido en esta página es para exclusivo uso privado, por lo que se prohibe su reproducción o retransmisión, así como su uso para fines comerciales.