El Vago, Carajo (tablatura)

Autor: Fabriicio | 18328 visualizaciones



Carajo - El Vago

Afinacion: 
 6:C2 
 5:G2 
 4:C3 
 3:F3 
 2:A3 
 1:D4


|------------------------------------------------------|
|------------------------------------------------------|
|--------------8-8-8-5-5-------------------------------|
|5-5-5-3-3-5-5-8-8-8-5-5-5-5-5-3-3-5-5-8-8-8-10-8-10---|X4
|5-5-5-3-3-5-5-6-6-6-3-3-5-5-5-3-3-5-5-8-8-8-10-8-10---|
|5-5-5-3-3-5-5-----------5-5-5-3-3-5-5-8-8-8-10-8-10---|

|------------------------------------------------------|
|------------------------------------------------------|
|--------------8-----8-----8-------------9-----9-----9-9-|
|5-----5-----5-8-----8-----8-7-----7---7-9-----9-----9-9-|
|5-----5-----5-6-6-6-6-6-6-6-7-----7---7-7-7-7-7-7-7-7-7-|
|5-5-5-5-5-5-5---------------7-7-7-7-7-7-----------------|
   

|--------------------------------------------------------|
|--------------------------------------------------------|
|--------------8-----8-----8-----------9-----9-----9-9-9-|
|5-----5-----5-8-----8-----8-7-----7---9-----9-----9-9-9-|
|5-----5-----5-6-6-6-6-6-6-6-7-----7---7-7-7-7-7-7-7-7-7-|
|5-5-5-5-5-5-5---------------7-7-7-7-7-------------------|

|--------------------------------------------------------|
|--------------------------------------------------------|
|----------8-8-8-8-8-------------------------------------|X2
|5-5-5-5-5-8-8-8-8-8-7-7-7-7-9-9-9-9---------------------|
|5-5-5-5-5-6-6-6-6-6-7-7-7-7-9-9-9-9---------------------|
|5-5-5-5-5-----------7-7-7-7-9-9-9-9---------------------|

|------------------------------------------------------|
|------------------------------------------------------|
|--------------8-8-8-5-5-------------------------------|
|5-5-5-3-3-5-5-8-8-8-5-5-5-5-5-3-3-5-5-8-8-8-10-8-10---|X2
|5-5-5-3-3-5-5-6-6-6-3-3-5-5-5-3-3-5-5-8-8-8-10-8-10---|
|5-5-5-3-3-5-5-----------5-5-5-3-3-5-5-8-8-8-10-8-10---|


|------------------------------------------------------|
|------------------------------------------------------|
|--------------8-----8-----8-----------9-----9-----9-9-|
|5-----5-----5-8-----8-----8-7-----7---9-----9-----9-9-|
|5-----5-----5-6-6-6-6-6-6-6-7-----7---7-7-7-7-7-7-7-7-|
|5-5-5-5-5-5-5---------------7-7-7-7-7-----------------|

|--------------------------------------------------------|
|--------------------------------------------------------|
|----------8-8-8-8-8-------------------------------------|
|5-5-5-5-5-8-8-8-8-8-7-7-7-7-9-9-9-9---------------------|X2
|5-5-5-5-5-6-6-6-6-6-7-7-7-7-9-9-9-9---------------------|
|5-5-5-5-5-----------7-7-7-7-9-9-9-9---------------------|

|----------------------------------------------------------|
|----------------------------------------------------------|
|--------8-8-8-10-10---------------------------------------|
|5-5-8-8-8-8-8-10-10---------------------------------------|X3
|5-5-8-8-6-6-6-8--8----------------------------------------|
|5-5-8-8---------------------------------------------------|


|----------------------------------------------------------|
|----------------------------------------------------------|
|--------8-------------------------------------------------|
|5-5-8-8-8-------------------------------------------------|
|5-5-8-8-6-------------------------------------------------|
|5-5-8-8---------------------------------------------------|

|------------------------------------------------------|
|------------------------------------------------------|
|--------------8-8-8-5-5-------------------------------|
|5-5-5-3-3-5-5-8-8-8-5-5-5-5-5-3-3-5-5-8-8-8-10-8-10---|X3
|5-5-5-3-3-5-5-6-6-6-3-3-5-5-5-3-3-5-5-8-8-8-10-8-10---|
|5-5-5-3-3-5-5-----------5-5-5-3-3-5-5-8-8-8-10-8-10---|


|--------------------------------------------------------|
|--------------------------------------------------------|
|----------------8-8-10-8--------------------------------|
|----5-----8-----8-8-10-8--------------------------------|X3
|----5-----8-----6-6-8--6--------------------------------|
|5-5-5-555-8-888-----------------------------------------|

|--------------------------------------------------------|
|--------------------------------------------------------|
|----------------8-8-8--10-10----------------------------|
|----5-----8-----8-8-8--10-10----------------------------|
|----5-----8-----6-6-6--8--8-----------------------------|
|5-5-5-555-8-888-----------------------------------------|

|--------------------------------------------------------|
|--------------------------------------------------------|
|----------8-8-8-8-8-------------------------------------|
|5-5-5-5-5-8-8-8-8-8-7-7-7-7-9-9-9-9---------------------|X4
|5-5-5-5-5-6-6-6-6-6-7-7-7-7-9-9-9-9---------------------|
|5-5-5-5-5-----------7-7-7-7-9-9-9-9---------------------|

|----------------------------------------------------------|
|----------------------------------------------------------|
|--------8-8-8-10-10---------------------------------------|
|5-5-8-8-8-8-8-10-10---------------------------------------|X3
|5-5-8-8-6-6-6-8--8----------------------------------------|
|5-5-8-8---------------------------------------------------|


|----------------------------------------------------------|
|----------------------------------------------------------|
|--------8-------------------------------------------------|
|5-5-8-8-8-------------------------------------------------|
|5-5-8-8-6-------------------------------------------------|
|5-5-8-8---------------------------------------------------|

|------------------------------------------------------|
|------------------------------------------------------|
|--------------8-8-8-5-5-------------------------------|
|5-5-5-3-3-5-5-8-8-8-5-5-5-5-5-3-3-5-5-8-8-8-10-8-10---|X4
|5-5-5-3-3-5-5-6-6-6-3-3-5-5-5-3-3-5-5-8-8-8-10-8-10---|
|5-5-5-3-3-5-5-----------5-5-5-3-3-5-5-8-8-8-10-8-10---|





Comentarios del colaborador: La Fuente es mia.La saque de OIDO

Calificar esta versión:
Aviso: Este fichero es trabajo propio de su transcriptor y representa su interpretación personal de la canción. El material contenido en esta página es para exclusivo uso privado, por lo que se prohibe su reproducción o retransmisión, así como su uso para fines comerciales.