Algo En Que Creer, Carajo (tablatura)

Autor: zzzz | 34000 visualizaciones



Inro (con un poco de delay)

1-------------------------------------------------------------------------
2---------5--5/6/5-------------5--5/6/5-----------------------------------
3-------5----------5---------5----------5------12---(12)----(12)------9-8-
4------7--------------------7------------------------------------(10)-----
5---5-5------------------5-5---------------8-8----(8)----(8)--------------
6-------------------------------------------------------------------------

verso
1-------------------------------------------------------------------------
2---------5--5/6/5-------------5--5/6/5-----------------------------------
3-------5----------5---------5----------5------12---(12)----(12)------9-8-
4------7--------------------7------------------------------------(10)----- x2
5---5-5------------------5-5---------------8-8----(8)----(8)--------------
6-------------------------------------------------------------------------

bridge
1---------------------------
2-----------6-5-------------
3---7-7-7-7------3-3-3-3----
4---7-7-7-7------3-3-3-3----
5---5-5-5-5------1-1-1-1----
6---------------------------

verso
1-------------------------------------------------------------------------
2---------5--5/6/5-------------5--5/6/5-----------------------------------
3-------5----------5---------5----------5------12---(12)----(12)------9-8-
4------7--------------------7------------------------------------(10)----- x2
5---5-5------------------5-5---------------8-8----(8)----(8)--------------
6-------------------------------------------------------------------------

estribillo
1--------------------------------------------------------------------
2--------------------------------------------------------------------
3--------------------------------------------------------------------
4--0-0-8---0-0-8--12-12-12-10-12-----0-0-8---0-0-8--12-12-12-10-12---
5--0-0-8---0-0-8--12-12-12-10-12-----0-0-8---0-0-8--12-12-12-10-12---
6--0-0-8---0-0-8--12-12-12-10-12-----0-0-8---0-0-8--12-12-12-10-12---

verso
1-------------------------------------------------------------------------
2---------5--5/6/5-------------5--5/6/5-----------------------------------
3-------5----------5---------5----------5------12---(12)----(12)------9-8-
4------7--------------------7------------------------------------(10)----- x2
5---5-5------------------5-5---------------8-8----(8)----(8)--------------
6-------------------------------------------------------------------------

bridge
1--------------------------------------------------------------
2-----------6-5--------------------6-5-------------------------
3---7-7-7-7-----3-3-3-3----7-7-7-7-----10-10-10-10-12-12-12-12-
4---7-7-7-7-----3-3-3-3----7-7-7-7-----10-10-10-10-12-12-12-12-
5---5-5-5-5-----1-1-1-1----5-5-5-5------8--8--8--8-10-10-10-10-
6--------------------------------------------------------------

estribillo
1-------------------------------------------------------------------------------------------------------
2-------------------------------------------------------------------------------------------------------
3-------------------------------------------------------------------------------------------------------
4--0-0-8---0-0-8--12-12-12-10-12-----0-0-8---0-0-8--12-12-12-10-12------0-0-8---0-0-8--12-12-12-10-12---
5--0-0-8---0-0-8--12-12-12-10-12-----0-0-8---0-0-8--12-12-12-10-12------0-0-8---0-0-8--12-12-12-10-12---
6--0-0-8---0-0-8--12-12-12-10-12-----0-0-8---0-0-8--12-12-12-10-12------0-0-8---0-0-8--12-12-12-10-12---

fill
1------------------------------------------------------------------
2------------------------------------------------------------------
3------------------------------------------------------------------
4-0-3-0-0-3-0-0-0-3-0-0-3-0-0-0-3-0-0-3-0-0-0--8-8-8-8-10-10-10-10-  x5
5-0-3-0-0-3-0-0-0-3-0-0-3-0-0-0-3-0-0-3-0-0-0--8-8-8-8-10-10-10-10-
6-0-3-0-0-3-0-0-0-3-0-0-3-0-0-0-3-0-0-3-0-0-0--8-8-8-8-10-10-10-10-

otra parte
1---------------------------------------------------------------------------------------
2---------------------------------------------------------------------------------------
3---------------------------------------------------------------------------------------
4---------10--------12---------10--------8-7-----------10--------12---------10----------
5-0-0-0-0-10--0-0-0-12-0-0-0-0-10-0-0-0--------0-0-0-0-10--0-0-0-12-0-0-0-0-10-0-0-0-0--
6-0-0-0-0-----0-0-0----0-0-0-0----0-0-0--------0-0-0-0-----0-0-0----0-0-0-0----0-0-0-0--
pm-------     -----    -------    -----        -------     -----    -------    -------

estribillo
1--------------------------------------------------------------------
2--------------------------------------------------------------------
3--------------------------------------------------------------------
4--0-0-8---0-0-8--12-12-12-10-12-----0-0-8---0-0-8--12-12-12-10-12---
5--0-0-8---0-0-8--12-12-12-10-12-----0-0-8---0-0-8--12-12-12-10-12---
6--0-0-8---0-0-8--12-12-12-10-12-----0-0-8---0-0-8--12-12-12-10-12---

1----------------------------------------------------------------
2----------------------------------------------------------------
3----------------------------------------------------------------
4---0-0-8---0-0-8--12-12-12-10-12---15-15-17-17-19-19--15-15-13--    
5---0-0-8---0-0-8--12-12-12-10-12---15-15-17-17-19-19--15-15-13--   
7---0-0-8---0-0-8--12-12-12-10-12---15-15-17-17-19-19--15-15-13--   

Fill
1------------------------------------------------------------------
2------------------------------------------------------------------
3------------------------------------------------------------------
4-0-3-0-0-3-0-0-0-3-0-0-3-0-0-0-3-0-0-3-0-0-0--8-8-8-8-10-10-10-10-  x4
5-0-3-0-0-3-0-0-0-3-0-0-3-0-0-0-3-0-0-3-0-0-0--8-8-8-8-10-10-10-10-
6-0-3-0-0-3-0-0-0-3-0-0-3-0-0-0-3-0-0-3-0-0-0--8-8-8-8-10-10-10-10-

Final
1---------------
2---------------
3---------------
4---------10----
5--0-0-0--10----
6--0-0-0--10----
pm------

----------------------------------------





Calificar esta versión:
Aviso: Este fichero es trabajo propio de su transcriptor y representa su interpretación personal de la canción. El material contenido en esta página es para exclusivo uso privado, por lo que se prohibe su reproducción o retransmisión, así como su uso para fines comerciales.