Moliendo Café, Canciones Populares (tablatura)

Autor: Anónimo | 33269 visualizaciones

Hola me llamo Angel y aqui les dejo el punteo de moliendo cafe
para guitarra,(los acordes y lo que hace la voz)

Cantado: La La La La - La La La La La La La
Comienza con Lam - SolM - FaM - MiM (se repite 4 veces)

E-------------|-----------------------|
B-10----------|-10-13-10----10--------|
G----12-10-9--|----------12----12-10-9| 2X
D-------------|-----------------------|
A-------------|-----------------------|
E-------------|-----------------------|

          LAm
Cuando la Tarde Languidece, renacen las sombras
E-------------------------|-13-13-12-10-13-10|
B--10-12-13-13-13-13-13-13|------------------|
G-9-----------------------|------------------|
D-------------------------|------------------|
A-------------------------|------------------|
E-------------------------|------------------|

                                            REm
Y en la que todos los cafetales, vuelven a sentir

E-------------------------|-------------10|
B--10-12-13-13-13-13-13-13|-13-13-12-10---|
G-9-----------------------|---------------|
D-------------------------|---------------|
A-------------------------|---------------|
E-------------------------|---------------|

                            SIb           LAm
Esa Triste canción de amor, de la vieja molienda

E------8-10-10-10-10-10-10-10|-10-10-12-10-12-10-8|
B---10-----------------------|--------------------|
G-9--------------------------|--------------------|
D----------------------------|--------------------|
A----------------------------|--------------------|
E----------------------------|--------------------|

FA             MI         LAm
Y el letargo de la noche, parece decir

E--------------------------|---------------|
B---10-12-13-13-13-13-12-12|-12-13-12-13-10|
G-9------------------------|---------------|
D--------------------------|---------------|
A--------------------------|---------------|
E--------------------------|---------------|

Se repite y luego sigue el coro. Una entradita

E---------
B-10-12-13
G---------
D---------
A---------
E---------

REm             SOL       DO 
Una Historia de amor, una tristeza

E-10-12-10-12-10-12-13|-12-10-12-10-8|
B---------------------|--------------|
G---------------------|--------------|
D---------------------|--------------|
A---------------------|--------------|
E---------------------|--------------|

REm            SOL     DO 
Lleva el zambo Manuel, En su amaragura

E-10-12-10-12-10-12-13|-12-15-12-10---|
B---------------------|-------------13|
G---------------------|---------------|
D---------------------|---------------|
A---------------------|---------------|
E---------------------|---------------|

SI7                         MI 
Pasa toda la noche moliendo café

E------------------------------------
B-12-12-12-12-12-12-12-12-13-12-13-10
G------------------------------------
D------------------------------------
A------------------------------------
E------------------------------------

Si desean Repiten Toda la canción. Ojalá que les guste.
Soy quenista y flautista, asi que me sé esta canción en quena
y en el punteo de guitarra Oigan primero la canción para que
tenga la idea. Alguna duda me avisan por mi correo
musico4to_angel@hotmail.com . Suerte
Aviso: Este fichero es trabajo propio de su transcriptor y representa su interpretación personal de la canción. El material contenido en esta página es para exclusivo uso privado, por lo que se prohibe su reproducción o retransmisión, así como su uso para fines comerciales.

Comentarios en Facebook: