Clavelitos, Canciones Populares (tablatura)

Autor: Anónimo | 42948 visualizaciones

Moderato: 3/4

         LAm
    Mo  ci   ta,  da  me_un   cla   vel,   da me_el cla vel de
e-------------------------------------------------------------
B-------1----0----------------0-------------------------------
G-----------------2-----1------------2----------------------0-
D---2---------------------------------------2--2----2---2-----
A-------------------------------------------------------------
E-------------------------------------------------------------

    MI7
 tu bo ca, que_en e so no_hay que te ner  mu cha ver güen za ni
e--------------------------------------------------------------
B-----------------3-1--0----------1--0----0--------------------
G-----------------------------2--------------1-----------------
D-3-2--0---2-------------------------------------2---2----2--0-
A--------------------------------------------------------------
E--------------------------------------------------------------

LAm     SOL7                 DO         SOL7         DO
po ca. Yo te da ré_un cas ca bel te lo  pro me to mo ci ta,
e--------------------------------------------------------------
B---------------------3---0--------------------3--0------------
G------0--0--0--0------------0---0---0--0---0--------2--0------
D-3-2----------------------------------------------------------
A--------------------------------------------------------------
E--------------------------------------------------------------

MI7                    LAm          MI7          LAm
Pa ra que_en vi die la miel que tie nes en la bo qui ta
e--------------------------------------------------------------
B---------------0---------------1---0---3-----0----0-----------
G-------------------1-------2--------------1-----------2-------
D-2-2--2------2--------2---------------------------------------
A--------------------------------------------------------------
E--------------------------------------------------------------

        LA                                               MI7
 Cla ve li tos, cla ve li tos, cla ve li tos de mi co ra zón
e--------------------------------------------------------------
B------------------------------2---2--2---0--------------------
G-2-------------2---2---2---------------------2--1-------------
D----2--2------------------2------------------------4--2--0----
A-----------4--------------------------------------------------
E--------------------------------------------------------------

                                                          LA
 Yo te trai go cla ve li tos en cen di dos co mo_es ta pa sión
e--------------------------------------------------------------
B----------------------------0--0---0--------------------------
G--------------1---1--1----------------2---1-------------------
D-0--0--0----------------0---------------------4-----2--0------
A-----------2-----------------------------------------------4--
E--------------------------------------------------------------

                                                        RE
Si_al gun di a cla ve li tos no lo gra ra po der te tra er, no
e--------------------------------------------------------------
B----------------------------2---2--2--0---------0--2---3---3--
G-2---2---2----2---2---2------------------2---2----------------
D------------4------------2------------------------------------
A--------------------------------------------------------------

                        LA              MI7                   LA
 te cre as que ya no te quie ro, ni que fue ron pa ra_o tra mu jer
e-----------------------------------------------------------------
B-3-3-------------2--2---2-------0---0---0------------------------
G-------------------------------------------2---1---1-------1--2--
D-------4--4---4-------------2---------------------------4--------
A-----------------------------------------------------------------
E-----------------------------------------------------------------
Aviso: Este fichero es trabajo propio de su transcriptor y representa su interpretación personal de la canción. El material contenido en esta página es para exclusivo uso privado, por lo que se prohibe su reproducción o retransmisión, así como su uso para fines comerciales.

Comentarios en Facebook: