Los Simpsons, Canciones Faciles Para Guitarra Electrica (acordes)

Autor: ismael99 | 53722 visualizaciones



vecion mia


E ------------------------------------------------------------
B ------------------------------------------------------------
G ------------2--0--------------------------------------------
D -----2--4---------2-----------------------------------------
A --3--------------------3--0---------------------------------
E ------------------------------2--2--2--3--2--2--2--3--3-----

e. ------------------------------------------------------------
B. ------------------------------------------------------------
G. ------------------------------------------------------------
D. ------------------------------------------------------------
A. ---------------------------------3--3--3--3--3-3-3----------
E. --2--2--2--3--2--2--2--3--3---------------------------------

Y este es el final que sale ya que se acaba La 
cancion.

E ----------------------------------
B ----------------------------------
G ------------2--0------------------
D ---0/2--4---------4--2--0--0------
A ----------------------------------
E ----------------------------------

Ver 2.0

E-----0---2--5-3-0-------------------------------------
B--1-------------------1-------------------------------
G-------------------------2----------0-----------------
D-----------------------------4-4-4--------------------
A------------------------------------------------------
E------------------------------------------------------


E-----0---2--5-3-0-------------------------------------------
B-1-------------------1--------------------------0---2-2-2-3-
G------------------------2---------0----------0--------------
D----------------------------4-4-4----4-4-4------------------
A------------------------------------------------------------
E------------------------------------------------------------ 


espero que les halla gustado comenten es muy fácil de aprender





Calificar esta versión:
Aviso: Este fichero es trabajo propio de su transcriptor y representa su interpretación personal de la canción. El material contenido en esta página es para exclusivo uso privado, por lo que se prohibe su reproducción o retransmisión, así como su uso para fines comerciales.