La Cucaracha, Canciones Del Jardin (tablatura)

Autor: guns_damian_roses | 44587 visualizaciones

Hola soy damian....aqui les traigo una cancion super corta  y facil:
 la cucaracha|la cucaracha|ya no puede...  x q' no tiene|x q'..
|-----------7-----------7----------------|---------8----------
|---------8-----------8---8-7-6-5-4-3-2--|-------9----------9-
|-8h7--8-------8h7--8--------------------|-9h8-9-----9h8--9---
|----------------------------------------|--------------------
|----------------------------------------|--------------------
|----------------------------------------|--------------------


le falta|las patitas de atras
|--8--8-7-6-5-4-3-2---------fin
|---------------------------fin
|---------------------------fin
|---------------------------fin
|---------------------------fin
|---------------------------fin



califiquenme y  escriban...soy de san miguel del monte.
Calificar esta versión:
Aviso: Este fichero es trabajo propio de su transcriptor y representa su interpretación personal de la canción. El material contenido en esta página es para exclusivo uso privado, por lo que se prohibe su reproducción o retransmisión, así como su uso para fines comerciales.
Más versiones de La Cucaracha, Canciones Del Jardin
La Cucaracha
tablatura
La Cucaracha (ver 2)
tablatura
Descubre más canciones de Canciones Del Jardin