Puede, Callejeros (tablatura) (ver 3)

Autor: Anónimo | 25724 visualizaciones

este es el solo
espero q les salga y le sirva
bue a pedido de un pibe aca esta
cualquier cosa   avilajuan27@hotmail.com




E----10-10--10--10----10-------------10-----------------------|
B-10b---10b-10b-10b-8-10-8----8----x-10b---10/8------8-10b----|
G------------------------7--9-9b-9-x-----0-9--7----9----------|
D----------------------------------x-----0--------------------|
A-------------------------------------------------------------|
E-------------------------------------------------------------|

E--15-----------12-10---10~------15b--------------------------|
B----15-----8--------12----12-x-----17-15-15b-----------------|
G-------14b---9---------------x---------------16-14-14b-14-12-|
D-----------------------------x-------------------------------|
A-----------------------------x-------------------------------|
E-------------------------------------------------------------|


E-------------------------------
B-------------------------------
G-------------------------------
D-14-12-------------------------
A------14-12--------------------
E-------------------------------
Aviso: Este fichero es trabajo propio de su transcriptor y representa su interpretación personal de la canción. El material contenido en esta página es para exclusivo uso privado, por lo que se prohibe su reproducción o retransmisión, así como su uso para fines comerciales.
Más versiones de Puede, Callejeros
Puede
acordes
Puede
tablatura
Puede (ver 2)
tablatura
Puede (ver 3)
tablatura
Descubre más canciones de Callejeros

Comentarios en Facebook: