Hoy, Callejeros (tablatura)

Autor: Anónimo | 29181 visualizaciones

intro
----------|-----------|-----------e
-5-4------|--5-4---7~-|---4-5-4---b
----6-4~--|------6----|-----------g
----------|-----------|-----------d
----------|-----------|-----------a
----------|-----------|-----------e
Verso:
 B
Hoy sólo habla
    C#
El silencio.
     E
Hoy sobrevive
    F#
el dolor.
    B
Hoy viajo por la angustia
      C#
del tiempo.
     G#m
Hoy sé que nos gobierna
    F#
el terror.

Puente:
 B
Hoy la tarde hiere,
     C#
la noche te enloquece
   E
y el día (siempre así)
     G#m
te despierta.
  B
Hoy sigo llorando
     C#
pero por vos, luchando,
    E
para que tu esencia
      F#
no desaparezca.


ESTRIBILLO:
 B           E
Hoy, desde el cielo
       Em
me guían tus ojos
       F#
adonde voy.
 B        E
Hoy, en mi pecho
        G#m
siento el recuerdo
       F#
de tu calor.

 B
Hoy me veo en medio
       C#
de tanta hipocresía,
  E
la luna y tus estrellas
    F#
no olvidan.

inter:
solo:
----------|-----------|----e
-5-4------|--5-4---7~-|----b
----6-4~--|------6----|----g
----------|-----------|----d
----------|-----------|----a
----------|-----------|----e

|--------------------------4-4~--7-6-4------4-6/7~-6-4-------e
|---5-4------4-5-7-7-7-5-4-------------7~-7------------7-5-7~b
|-------6-4~-------------------------------------------------g
|------------------------------------------------------------d
|------------------------------------------------------------a
|------------------------------------------------------------e
Verso:

Hoy sólo lleno

renglones.

Hoy la suerte

no te pide perdón.

Hoy son enormes

los escalones.

Hoy las canciones

quedan en un rincón.

Puente:

Hoy todo está en duda,

hoy la muerte

Te saluda

y la memoria

no te mira y se

olvida.


Hoy sigo extrañando

pero por vos, cantando

para que tu vida

dé sentido a la mía


ESTRIBILLO


fin:
----------|-----------|---e
-5-4------|--5-4---7~-|---b
----6-4~--|------6----|---g   x2
----------|-----------|---d
----------|-----------|---a
----------|-----------|---e

------------------|e
--5-4-------------|b
------6-6~--4-----|g
------------------|d
------------------|a
------------------|e

espero les guste
MI MSN ES avilajuan27@hotmail.com
saludos
Aviso: Este fichero es trabajo propio de su transcriptor y representa su interpretación personal de la canción. El material contenido en esta página es para exclusivo uso privado, por lo que se prohibe su reproducción o retransmisión, así como su uso para fines comerciales.
Más versiones de Hoy, Callejeros
Hoy
acordes
Hoy
tablatura
Descubre más canciones de Callejeros

Comentarios en Facebook: