El Nudo, Callejeros (bajo)

Autor: Anonimo | 19763 visualizaciones

Esta es una propia corrección del tema. Le hice algunas modificaciones.
Ahora esta joya.


INTRO                                    x= varias veces

Después de la guitarra...

G|-------|----------------------------------------------------|
D|-------|----4-4-2-2----4-5-7-5-4-------2-4-2----------------|
A|-------|--2---------2------------0--0--------0x-------------|
E|---3x--|----------------------------------------------------|

Un final...
G|--------------4---------------------------------------------|
D|-------4-5-7----7-5-4---------------------------------------| x2
A|--5--5------------------------------------------------------|
E|------------------------------------------------------------|

Es lo que buscas...
G|------------------------------------------------------------|
D|------------------------------------------------------------|
A|--2222---0000--------0000-----------------------------------|
E|---------------3333-----------------------------------------|

Terminaran...
G|--------------4---------------------------------------------|
D|-------4-5-7----7-5-4---------------------------------------| x3
A|--5--5------------------------------------------------------|
E|------------------------------------------------------------|

No hay tiempo ni espacio...
G|------------------------------------------------------------|
D|------------------------------------------------------------|
A|--2x--------------------------------------------------------|
E|------------------------------------------------------------|

Ni fe, ni fe...
G|----------------------------|-------------------------------|
D|-----4-4-2-2----4-4-2-2-----|-----2-4-2-------2-4-2---------|
A|---2----------2----------0--|---0-------0---0---------------|
E|----------------------------|-------------------------------|

Porque lo que empieza...
G|------------------------------------------------------------|
D|------------------------------------------------------------|
A|--5---5----------7------------------------------------------|
E|----7--------5-5---5-5---3x---5x----------------------------|

La riqueza de este viaje...
G|----------------------|-------------------------------------|
D|----------------------|-----2-4-2---------------------------|
A|---------------55--0--|--0---------0------------------------|
E|---55---33------------|-------------------------------------|

Porque si me muero...
G|------------------------------------------------------------|
D|------------------------------------------------------------|
A|---7-7-7-7----5-5-5-5---------------------------------------|
E|------------------------5x----------------------------------|



No olvidar...
G|--------------4---------------------------------------------|
D|-------4-5-7----7-5-4---------------------------------------| x2
A|--5--5------------------------------------------------------|
E|------------------------------------------------------------|

Que la idea sea el sol...
G|------------------------------------------------------------|
D|------------------------------------------------------------|
A|--2222---0000--------0000-----------------------------------|
E|---------------3333-----------------------------------------|

Ni se haga verdad...
G|--------------4---------------------------------------------|
D|-------4-5-7----7-5-4---------------------------------------| x3
A|--5--5------------------------------------------------------|
E|------------------------------------------------------------|

Que a las masa pensando...
G|------------------------------------------------------------|
D|------------------------------------------------------------|
A|---2x-------------------------------------------------------|
E|------------------------------------------------------------|

Jamás, jamás...
G|----------------------------|-------------------------------|
D|-----4-4-2-2----4-5-7-5-4---|-----2-4-2-------2-4-2---------|
A|---2----------2-----------0-|---0-------0-0-0---------------|
E|----------------------------|-------------------------------|

Porque lo que empieza...
G|------------------------------------------------------------|
D|------------------------------------------------------------|
A|--5---5----------7------------------------------------------|
E|----7--------5-5---5-5---3x---5x----------------------------|

La riqueza de este viaje...
G|----------------------|-------------------------------------|
D|----------------------|-----2-4-2---------------------------|
A|---------------55--0--|--0---------0------------------------|
E|---55---33------------|-------------------------------------|

Porque si me muero...
G|------------------------------------------------------------|
D|------------------------------------------------------------|
A|---7-7-7-7----5-5-5-5---------------------------------------|
E|------------------------5x----------------------------------|

El nudo aprieta mal...
G|------------------------------------------------------------|
D|------------------------------------------------------------|
A|---22--22-----55--55----------------------------------------|
E|------------------------------------------------------------|

Todos los sueños...
G|------------------------------------------------------------|
D|------------------------------------------------------------|
A|------------------------------------------------------------|
E|---3x---5x---3x---------------------------------------------|



Que cielo hay que mirar...
G|------------------------------------------------------------|
D|------------------------------------------------------------|
A|---22-22-----55-55------------------------------------------|
E|------------------------------------------------------------|


Cuando la muerte se hará...
G|------------------------------------------------------------|
D|------------------------------------------------------------|
A|--0-0-0-10-9-7-10-9-7-5x—3x---------------------------------|
E|------------------------------------------------------------|

SOLO
G|------------------------------------------------------------|
D|------------------------------------------------------------| x2
A|---5x-------------------------------------------------------|
E|--------5x---3x---------------------------------------------|

Porque si me voy...
G|------------------------------------------------------------|
D|------------------------------------------------------------| x3
A|---5x-------------------------------------------------------|
E|--------5x---3x---------------------------------------------|

Final
G|------------------------------------------------------------|
D|-------------5-4-2-0----------------------------------------|
A|-------------------------2-3-5-3-2------2-3-5~--------------|
E|----33---33------------3-----------3--3---------------------|

Escuchen el tema para saber el ritmo.
Por lo general tiene partes muy rápidas pero son fáciles.

Fuente original: LaCuerda
Colaborador original: Gonzalo Mari [gonza_mari4@hotmail.com]
Aviso: Este fichero es trabajo propio de su transcriptor y representa su interpretación personal de la canción. El material contenido en esta página es para exclusivo uso privado, por lo que se prohibe su reproducción o retransmisión, así como su uso para fines comerciales.
Más versiones de El Nudo, Callejeros
El Nudo
acordes
El Nudo
tablatura
El Nudo
bajo
Descubre más canciones de Callejeros

Comentarios en Facebook: