El Espejo, Callejeros (tablatura)

Autor: Anónimo | 34809 visualizaciones

espero les guste y le paresca bien
dudas?? avilajuan27@hotmail.com
los efectos de las cuerdas vibrato estirar esos fijense escuchen la cancion
xq no los puse a todos
un abrazo

solo
E----------------------------------------------------------|    |
B-15-15-15-14-12-10----------------------------------------|    |
G-------------------12-14-12-10----------------------------|    |  se
D-------------------------------12~-10---------------------|    | repite
A---------------------------------------12-10----8-10-8----|    | 2 veces
E---------------------------------------------10--------10-|    | lo
                                                                | mismo
                                                                |
E----13-10----13-13-10-----|                                    |
B-12-12-10----12-12-10-----|                                    |
G--------------------------|                                    |
D--------------------------|                                    |
A--------------------------|                                    |
E--------------------------|                                    |





E-----------------------------------| B-----------------------------------| G-----------------------------------| D--12-11-9-----------------------12~| A----------12-10~10-9-10-9-10-9~----| E-----------------------------------| FINAL E----------------------------------------------------------| B----------------------------------------------------------| G-9-12-12--9-12-12-11-9-9----------------------------------| D--------------------------12--10-10-9-9-9-----------------| A------------------------------------------12-10-----------| E-------------------------------------------------12-10-12-| E---12-12--------------------------------7/10-7/10-10/12-- B-12------12-13-12-12------------------------------------- G---------------------11-12-11---------9------------------ D------------------------------12-9-12-------------------- A--------------------------------------------------------- E--------------------------------------------------------- E-------------------------------| B-----8-8-8~-7-8-8-10-10-10-----| G-7-9---------------------------| D-------------------------------| A-------------------------------| E-------------------------------| E--12--------|-----| B-----12-----|-----| G--------12--|-----| D------------|--2--| A------------|--2--| E------------|-----|
Calificar esta versión:
Aviso: Este fichero es trabajo propio de su transcriptor y representa su interpretación personal de la canción. El material contenido en esta página es para exclusivo uso privado, por lo que se prohibe su reproducción o retransmisión, así como su uso para fines comerciales.
Más versiones de El Espejo, Callejeros
El Espejo
acordes
El Espejo
tablatura
El Espejo (ver 2)
tablatura
Descubre más canciones de Callejeros