Creo, Callejeros (bajo)

Autor: Anónimo | 44915 visualizaciones

Intro:

--------------------------------
--------------------------------
---5~-----------------7---------
------7-9-11-7-11-9-7---6-9-6---


Verso:

---------------------------------------------
---------------------------------------------
--5------------------7-----------7-----------
-----7-9-11-7-11-9-7---6-7-9-7-6---6-7-9-7-6-


"Pero no creo en el circo..."

--7--------------------------------------------
-----5-7-------7-----------7-5-5-5-5-----------
----------4--4---4-5---5-4-----------7-7-7-7---
-----------------------------------------------


Estribillo:

--------------------------7-7-7----------------------------------------------------------------------------------
------------7-5-5-5-5-7---------5-7-----------------------------------7-5-5-5-7---------------7-5-5-5-5----------
--5-5-5-5-4-------------4-----------4-5-5-5-5-4-5-7-7-7-7-5-4-5-5-5-4-----------4-7-7-7-7-5-4-----------7-7-7-7--
-----------------------------------------------------------------------------------------------------------------


Puente:

-------------------------------------------------------
-------------------------------------------------------
-7-7-7-7-----------9------9-4--4-7-4-5--5-4-5-7-7-7-7--
---------9--9-11-9----5-4------------------------------

Comentarios del colaborador: Intenten tocarla escuchando la cancion... sino va a ser dificil jeje. Espero que les guste! Saludos!

Aviso: Este fichero es trabajo propio de su transcriptor y representa su interpretación personal de la canción. El material contenido en esta página es para exclusivo uso privado, por lo que se prohibe su reproducción o retransmisión, así como su uso para fines comerciales.
Más versiones de Creo, Callejeros
Creo
acordes
Creo
tablatura
Creo
bajo
Creo
teclado
Descubre más canciones de Callejeros

Comentarios en Facebook: