9 De Julio, Callejeros (bajo)

Autor: Anónimo | 15752 visualizaciones

Bueno aca subo este bajo que esta muy bueno..
escuchen bien el tema para saber el ritmo..
es sencillo porq es estructurado,
se tienen que aprender cada una de las dos
Partes y tocan todo el tema..
Bueno aca va la primer parte que se toca
en todo el tema excepto en los estribillos



G|----------------------------------------------------------------------
D|---------8------------------------------------------------------------
A|-9---7-6-------------7-8-9-----(11-9)-x4---(13-11)-x8---13-11---------
E|-------------6-7-9--------------------------------------------13-11---

G|----------------------------------------------------------------------
D|----------------------------------------------------------------------
A|-13-11-------------------------9-9-9-7--------------------------------
E|-------13-11-----4-----9---9-7----------------------------------------

Bueno hasta aca tocamos la intro y la primera ronda.. la segunda ronda,
antes de entrar al estribillo tiene un arreglo, osea hacemos lo mismo
que arriba, pero le agregamos esto antes de entrar al estribillo, se
los engancho desde un poco antes:

G|----------------------------------------------------5~6-5-----5~6-5---
D|----------------------------------------------4-6--------6-4-------6-4
A|-13-11-------------------------9-9-9-7-4---4-6------------------------
E|-------13-11-----4-----9---9-7-------------(es bien rapido)-----------

Estribillo

G|-¡------------------------------¡-------------------------------------
D|-¡-------8----------------------¡----------5~6-5--------5~6-5---------
A|-¡-6-6-6----------9---9-9-9-7---¡--x2------------6-4----------6-4-----
E|-¡----------7-7-7-------------9-¡-------4-------------4---------------


G|----------------------------------------------------------------------
D|-----8~9-8-----------------------5--------5-3-2-----------------------
A|------------9-7------------6-------6-4----------4---------------------
E|--7------------------2------------------------------------------------

Todo el tema es igual excepto en el entrecortado que hace algo distinto:

G|----------------------------------------------------------------------
D|----------------------------------------------------------------------
A|---7-7-7-7------------------------------------------------------------
E|------------6-6-6-6---9-9-9-9-7-6-------------------------------------

Y ahora engancha con el verso en la parte:

G|----------------------------------------------------------------------
D|----------------------------------------------------------------------
A|---------(11-9)-x4---(13-11)-x8---------------------------------------
E|----------------------------------------------------------------------

Y asi sigue todo igual..
Espero que les sirva porq me costo trabajo hacerlo..
Abrazo y buena vida
Aguante callejeros la mejor banda lejos..
Aviso: Este fichero es trabajo propio de su transcriptor y representa su interpretación personal de la canción. El material contenido en esta página es para exclusivo uso privado, por lo que se prohibe su reproducción o retransmisión, así como su uso para fines comerciales.
Más versiones de 9 De Julio, Callejeros
9 De Julio
acordes
9 De Julio
tablatura
9 De Julio
bajo
9 De Julio
armonica
Descubre más canciones de Callejeros

Comentarios en Facebook: