Aqui No Pasa Nada, Caifanes (tablatura)

Autor: Anónimo | 33932 visualizaciones

Introduccion: (el requinto se toca 2 veces)

     A

E-----------------------------------------------------------------------
B-----------------------------------------------------------------------
G-----------------------------------------------------------------------
D--------------------------------7--6-----------------------------------
A---------7---7-----5--4--5--4------------------7---7----4--4--4--5--4--
E--5---5---------------------------------5---5--------------------------


     F#m

E-----------------------------------------------------------------------
B-----------------------------------------------------------------------
G-----------------------------------------------------------------------
D-----------------------------------------------------------------------
A----------4---4---2--0---0---2---4------------4---4---2--0---0---2---0-
E--2---2--------------------------------2---2---------------------------


          
                        C#m     Pausa(tocar arreglo #1 para empezar el
siguiente parrafo)
...liso y blanco sin doblar.


Arreglo #1:  (tapar el sonido con la palma de la mano)

E--------------------------
B--------------------------
G--------------------------
D---7---6--6--7--6---------
A--------------------------
E--------------------------


Antes de cantar el el tercer parrafo (despues del primer coro), se toca
el mismo
requinto de la introducción una sola vez.


Despues del segundo coro entra el siguiente requinto:

   F# (mayor)                                  E

E-------------------------------------------------------------------------------
B-------------------------------------------------------------------------------
G-------------------------11----------------------------------------------------
D-----8---9---11---9---8-------11---9---8---9---9---8---9---8---11---9--8--9--8-
A--9----------------------------------------------------------------------------
E-------------------------------------------------------------------------------

   D                                              Bm                        C

E------------------------------------------------------------------------------------------

B------------------------------------------------------------------------------------------

G------------------------------------------------------------------------------------------

D---------------12-------------------------------------------------------------------------

A-------9---10-------12---10--------9--10--12---------7---9---10---9---7--------7---9---10-

E--10--------------------------10-----------------7-------------------------8--------------

   F# (mayor)                                  E

E------------------------------------------------------------------------------
B------------------------------------------------------------------------------
G-------------------------11------11-------------------------------------------
D-----8---9---11---9---8------11------11---8----9---8---9---8---9---9---8---11-
A--9---------------------------------------------------------------------------
E------------------------------------------------------------------------------

   D                                              Bm                        C


E------------------------------------------------------------------------------------------
B------------------------------------------------------------------------------------------
G------------------------------------------------------------------------------------------
D---------------12-------------------------------------------------------------------------
A-------9---10-------12---10--------9--10--12---------7---9---10---9---7--------7---9---10-
E--10--------------------------10-----------------7-------------------------8--------------

   F#m  (con "plumilleo")

E---9---9--9--9--9--9----9---9--9--9--9--9----9---9--9--9--9--9-
B--12--10-10-10-10-10---12--10-10-10-10-10---12--10-10-10-10-10-
G--11--11-11-11-11-11---11--11-11-11-11-11---11--11-11-11-11-11-
D---------------------------------------------------------------
A---------------------------------------------------------------
E---------------------------------------------------------------

                                G               A
                                Hace   tiempo   me   dijeron

E---9-X--9---9-X--9---9-X--9----7-7-X-7-7-7-7---9--9-X--9--9--9--9-
B--12-X-10--12-X-10--12-X-10----8-8-X-8-8-8-8--10-10-X-10-10-10-10-
G--11-X-11--11-X-11--11-X-11----7-7-X-7-7-7-7---9--9-X--9--9--9--9-
D------------------------------------------------------------------
A------------------------------------------------------------------
E------------------------------------------------------------------

   Bm  
         Aqui  no  pasa  nada...

E--7-7-X-7-7-7-7--X-X-7-X-7-X-7-X-7-X-7-X-7
G--7-7-X-7-7-7-7--X-X-7-X-7-X-7-X-7-X-7-X-7
B--7-7-X-7-7-7-7--X-X-7-X-7-X-7-X-7-X-7-X-7
D--9-9-X-9-9-9-9--X-X-9-X-9-X-9-X-9-X-9-X-9
A--9-9-X-9-9-9-9--X-X-9-X-9-X-9-X-9-X-9-X-9
E--7-7-X-7-7-7-7--X-X-7-X-7-X-7-X-7-X-7-X-7

Fuente original: LaCuerda
Colaborador original: ]
Calificar esta versión:
Aviso: Este fichero es trabajo propio de su transcriptor y representa su interpretación personal de la canción. El material contenido en esta página es para exclusivo uso privado, por lo que se prohibe su reproducción o retransmisión, así como su uso para fines comerciales.
Más versiones de Aqui No Pasa Nada, Caifanes
Aqui No Pasa Nada
acordes
Aqui No Pasa Nada
tablatura
Descubre más canciones de Caifanes