Antes De Que Nos Olviden, Caifanes (bajo)

Autor: Anónimo | 33325 visualizaciones

Este es el solo de bajo por el maestro Sabo romo, esta 100% corregido
chequen antes los simbolos para darle un mejor sonido.


Slide: /
Vibrato: ~
Pull: ^
Ligado: ¯


        (A)

G||--------------14~~~----|--(14)-14¯16--13¯14¯13~~~-||
D||--7/-----(14)----------|--------------------------||
A||-----------------------|--------------------------||
E||-----------------------|--------------------------||


G||------12~~~14-16-14-12-|-11~~~(12)¯11~~~------9¯10||
D||14-16------------------|----------------12-14-----||
A||-----------------------|--------------------------||
E||-----------------------|--------------------------||

                                         (F#m)

G||12-14-16-14---17^17(18)|---16--14¯16¯14~~~------14||
D||-----------------------|------------------14¯16---||
A||-----------------------|--------------------------||
E||-----------------------|--------------------------||

                                               (A)

G||17-16-14--------14-----|--------------------------||
D||----------14¯16---16---|14¯16¯14------------------||
A||-----------------------|---------16/--------12~~~-||
E||-----------------------|--------------------------||


retro_mb@yahoo.com.mx
Calificar esta versión:
Aviso: Este fichero es trabajo propio de su transcriptor y representa su interpretación personal de la canción. El material contenido en esta página es para exclusivo uso privado, por lo que se prohibe su reproducción o retransmisión, así como su uso para fines comerciales.
Más versiones de Antes De Que Nos Olviden, Caifanes
Antes De Que Nos Olviden
acordes
Antes De Que Nos Olviden (ver 2)
acordes
Antes De Que Nos Olviden (ver 3)
acordes
Antes De Que Nos Olviden
tablatura
Antes De Que Nos Olviden
bajo
Descubre más canciones de Caifanes