Amanece, Caifanes (tablatura)

Autor: Anónimo | 35274 visualizaciones

Este es el riff que toca Saul mientras canta,
Pasa el tiempo y todo sigue igual... 
Varias veces
e-0---0-----0---0-----0---0-----2-0-------|
b-2-4---4-2-2-4---4-0-2-4---4-2-----4-----|
g-----------------------------------------|
d-----------------------------------------|
a-----------------------------------------|
e-----------------------------------------|

Nunca nadie me podra parar... x2
e-9-12-9-12-7-12-11-7-9-12-9-12-14-12-11-7--|
b-------------------------------------------|
g-------------------------------------------|
d-------------------------------------------|
a-------------------------------------------|
e-------------------------------------------|

Mientras ay como uan pausa se toca esto 15 veces
e-12-14-7-9--|
b------------|
g------------|
d------------|
a------------|
e------------|

Este es el solo de la cancion
e-5br-----0------------------------------------------------|
b-----2-4---4---------0---------------------------2--------|
g-------------1-2-1-1---2-1-----2-1-----2-1---1-2---2-1----|
d-------------------------------------------4------------4-|
a---------------------------4-4-----4-4--------------------|
e----------------------------------------------------------|

e-----------------------0-------|   br=bend and release
b-------------------------------|      doblar y soltar
g-----2-1-----2-1---1-2---2br---|
d-----------------4-------------|
a-4-4-----4-4-------------------|
e-------------------------------|

Eso es todo menden sus dudas o comentarios a 
caifan_4315@yahoo.com

Fuente original: LaCuerda
Colaborador original: Paul Barajas caifan_4315 [caifan_4315@yahoo.com]
Calificar esta versión:
Aviso: Este fichero es trabajo propio de su transcriptor y representa su interpretación personal de la canción. El material contenido en esta página es para exclusivo uso privado, por lo que se prohibe su reproducción o retransmisión, así como su uso para fines comerciales.
Más versiones de Amanece, Caifanes
Amanece
acordes
Amanece (ver 2)
acordes
Amanece
tablatura
Amanece
bajo
Descubre más canciones de Caifanes