Como Te Extraño Mi Amor, Cafe Tacuba (tablatura)

Autor: Anónimo | 26515 visualizaciones



estos requintos estan muy faciles!!!
espero ke les salgan.....

te extrano tanto que voy a en loquecer...

6---------------------------
5---------------------------
4---------------------------
3---------------------------
2----5-----5-----5-----5----
1---------------------------

pronto tienes que volver....

6---------------------------------
5---------------------------------
4---------------------------------   x 2
3---------------------------------
2-8-10-9-0-10-11-11-2-4-3-0-4-5-5-
1---------------------------------

2:21

6---------------------------------------
5---------------------------------------
4---------------------------------------
3---12---------12---------12---------17-
2---12---------12---------12---------17-
1---12---------12---------12---------17-

2:55

6--------------------------------------
5--------------------------------------
4--------------------------------------
3--------------------------------------
2---5-----5-----5-----5-----5-----5-----5-----5-----5-----5
1--------------------------------------

sugerencias al mail...
localizame icq#104228625

Fuente original: LaCuerda
Colaborador original: Miguel Montemayor [wipirimva@starmedia.com]





Calificar esta versión:
Aviso: Este fichero es trabajo propio de su transcriptor y representa su interpretación personal de la canción. El material contenido en esta página es para exclusivo uso privado, por lo que se prohibe su reproducción o retransmisión, así como su uso para fines comerciales.
Más versiones de Como Te Extraño Mi Amor, Cafe Tacuba
Como Te Extraño Mi Amor
acordes
Como Te Extraño Mi Amor
tablatura
Como Te Extraño Mi Amor (ver 2)
tablatura
Como Te Extraño Mi Amor
bajo
Descubre más canciones de Cafe Tacuba