Bar Tacuba, Cafe Tacuba (tablatura)

Autor: Anónimo | 40929 visualizaciones



Bueno este es el principio de esta cancion, es muy sencillo 
por eso no creo que les cueste trabajo ahi va


e----3--7-----------------3--7--------------------
b--5-------3--3-4-5-3---5-------3--3-4-5-3--------
g-------------------------------------------------
d-------------------------------------------------
a-------------------------------------------------
e-------------------------------------------------


e---12-12-12---10-10-10---12-10-8-8-8-
b-------------------------------------
g-------------------------------------
d-------------------------------------
a-------------------------------------
e-------------------------------------

e---7-7-7---5-5-5---7-5-3-3-3---------
b-------------------------------------
g-------------------------------------
d-------------------------------------    X2
a-------------------------------------
e-------------------------------------



Y ya luego se vuelve a repetir y eso es todo
disfrutenla.

Fuente original: LaCuerda
Colaborador original: Alex Capellan [luiscapellan@aol.com]





Calificar esta versión:
Aviso: Este fichero es trabajo propio de su transcriptor y representa su interpretación personal de la canción. El material contenido en esta página es para exclusivo uso privado, por lo que se prohibe su reproducción o retransmisión, así como su uso para fines comerciales.
Más versiones de Bar Tacuba, Cafe Tacuba
Bar Tacuba
acordes
Bar Tacuba
tablatura
Descubre más canciones de Cafe Tacuba