El Sueño Del Pibe, Cadena Perpetua (acordes) (ver 2)

Autor: Anónimo | 38965 visualizaciones



C      D     F     C5    G5    F5    D   A#
e---0------2-----1----------------------------
b---1------3-----3----------------------------
g---0------2-----3-----5-----------------5---3
d---2------0-----2-----5-----5-----3-----5---3
a---3------------1-----3-----5-----3-----3---1
e----------------1-----------3-----1----------

(*)muteando

C
Ha llegado el día en 
D
que la gente se canso
F
de que la traicionen
              C5
que le mientan 
            G5
que le roben
C
pero amigo mio
D
aqui la fiesta terminó
F
por que somos muchos 
            C5 
somos muchos
           G5
mas que vos

ESTRIBO
F5                             C5
y ahora vamos a ver quien va a joder a quien
d-------------*22---*33
a---*33---*55----------
F5                         D5            G5
si nuestro es el futuro el presente ¿de quién es?

*C5
Ha llegado el día en 
*D5
que la gente se canso
F
de que la traicionen
C5
que le mientan 
G5
que le roben
*C5
pero amigo mio
*D5
aqui la fiesta terminó
F5
por que somos muchos 
C5 
somos muchos
G5
mas que vos

ESTRIBO
F5                             C5
y ahora vamos a ver quien va a joder a quien
d-------------*22---*33
a---*33---*55----------
F5                         D5            G5
si nuestro es el futuro el presente ¿de quién es?

b---8---5-------8---5-----8-10---7-------10---7----
g-----------5-----------5------------7------------7

F5-A#-F5-A#-C5-G5
e----------------------------------------8---
b---8---5-------8---5-----8--5--8-10--7----10
g-----------5-----------5--------------------

e------------8----
b--10-10---7---10-
(creo que es algo asi)

F5-A#-F5-A#-C5-G5

*C5
Abro la ventana 
*D5
y veo la revolución
F5
no me imaginaba 
C5               G5
tanta gente como yo
*C5
miles de carteles
*D5
reclamando la verdad
F5
por las avenidas 
C5               G5  
no paraban de gritar

ESTRIBO

FINAL
*C  b---6---8
    g---5---7    x3 G

Fuente original: LaCuerda
Colaborador original: bily mapache [[email protected]]





Calificar esta versión:
Aviso: Este fichero es trabajo propio de su transcriptor y representa su interpretación personal de la canción. El material contenido en esta página es para exclusivo uso privado, por lo que se prohibe su reproducción o retransmisión, así como su uso para fines comerciales.
Más versiones de El Sueño Del Pibe, Cadena Perpetua
El Sueño Del Pibe
acordes
El Sueño Del Pibe (ver 2)
acordes
Descubre más canciones de Cadena Perpetua