Desde El Infierno, Cadena Perpetua (tablatura)

Autor: Anónimo | 37981 visualizaciones



Cadena Perpetua                |
             Desde el Infierno |
-------------------------------|

Intro:
1|--------------------------------------------|
2|--------------------------------------------|
3|--------------------------------------------|
4|-7-xxxxxxx-7-xxxxxxx-------xxxxxxx-7-xxxxxxx|
5|-5-xxxxxxx-5-xxxxxxx-7/5/7-xxxxxxx-5-xxxxxxx|
6|---xxxxxxx---xxxxxxx-5/3/5-xxxxxxx---xxxxxxx|

Riff1:
  la  mi  fa#3
1|-0-|-0-|-3---|
2|-2-|-0-|-3---|
3|-2-|-1-|-4---|
4|-2-|-2-|-5---|
5|-0-|-2-|-5---|
6|-x-|-0-|-3---|

Riff2:En mute
1|------------------------------------|
2|------------------------------------|
3|------------------------------------|
4|--------------------------------7-9-|x2
5|-555555555553333333333355555555-5-7-|
6|-333333333331111111111133333333-----|

Estribillo:
  sol re la
1|-3-|2-|0-|
2|-0-|3-|2-|
3|-0-|2-|2-|
4|-0-|0-|2-|
5|-2-|0-|0-|
6|-3-|0-|0-|

Riff3(mientras se hace cada sonido se para con la mano(se toca,
para)
1|---|
2|-2-|
3|-2-| todas las vecez necesarias
4|-2-|
5|---|
6|---|

Riff4(esto van casi en lo ultimo antes del ultimo estribillo)
puede q sea en mute esta parte

1|-------------------------|
2|-------------------------|
3|-------------------------|
4|---------3333-------3333-|
5|-4444444-1111-7-777-1111-|
6|-1111111------5-555------|

Riff5
1|--------------|
2|--------------|
3|--------------|
4|--------------|
5|5-5-5-5-5-5-5-|
6|3-3-3-3-3-3-3-|

(Intro)
estoy seguro,
esta no es forma de vivir,
vamos a terminar matandonos.

(Riff1)
la                     mi
no imagine la vida haci
               fa#3
ni a vos ni a mi,
                   mi
bajo el mismo cielo

lastimandonos.

(Riff 2 x2)
por ser humanos,el instinto es natural
nos convertimos en parasitos,
por no pensar
en los demas,no somos mas
que miserables seres 

problematicos,automaticos,

Estribillo:
-----------------------------
sol   re
por favor!!!
re
sacame de este infierno
la                    sol
que ya no tengo salvacion,
sol   re
por favor!!
re
que hay demasiado fuego
la                    sol
tiene que haber algo mejor
-----------------------------
Riff 3(todas las vecez que esa necesario)
se que no es facil 
encontrar la solucion,
pero singamos intentandolo

la                     mi
que la propuesta de morir
              fa#3
siempre esta ahi,
               mi
en algun costado 

observando,esperandonos


Estribillo:
-----------------------------
sol   re
por favor!!!
re
sacame de este infierno
la                    sol
que ya no tengo salvacion,
sol   re
por favor!!
re
que hay demasiado fuego
la                    sol
tiene que haber algo mejor
-----------------------------

Riff4
tratemos de cuidarnos mas,
queran que yo me enfrente a ti,
tratemos de escucharnos mas,

Riff5
no seamos tan injenuos
que haci se pasa el tiempo..

Estribillo:
-----------------------------
sol   re
por favor!!!
re
sacame de este infierno
la                    sol
que ya no tengo salvacion,
sol   re
por favor!!
re
que hay demasiado fuego
la                    sol
tiene que haber algo mejor
-----------------------------

cualquier duda comentario arreglo mi mail es 
[email protected]

Un saludo para todos los de san martin!!!!!!!!!Dead Minx
!!!aguante Linkin park!!!!!!!!!!!!

Fuente original: LaCuerda
Colaborador original: damian 666 [[email protected]]





Calificar esta versión:
Aviso: Este fichero es trabajo propio de su transcriptor y representa su interpretación personal de la canción. El material contenido en esta página es para exclusivo uso privado, por lo que se prohibe su reproducción o retransmisión, así como su uso para fines comerciales.
Más versiones de Desde El Infierno, Cadena Perpetua
Desde El Infierno
acordes
Desde El Infierno (ver 2)
acordes
Desde El Infierno
tablatura
Descubre más canciones de Cadena Perpetua