Globo, Cabezones (acordes) (ver 2)

Autor: tuti_callejero | 29220 visualizaciones



Verso:
	      FAb	RE*  SOLb  FAb
Ven a mi otra vez
		  SOLb
que estoy atado a ti
  SIb
solo
	FAb	RE*  SOLb  FAb
te llevaré
		    SOLb		SIb	
hasta el lado más oculto de mi ser
       FAb	RE*  SOLb  FAb
y volaremos
		     SOLb
en un globo que inventé
   SIb
solos


Estribillo:
REb	     DOb
Tirame otra vez
			      RE
que estoy volando en un globo
	      REb
si caigo moriré

verso:
	      FAb	RE*  SOLb  FAb
Ven a mi otre vez
		  SOLb
que es solo para mi
       LA
un sueño
        FAb	RE*  SOLb  FAb
te llevaré
		    SOLb	SIb
hasta el lado más oculto tocaré
      FAb	RE*  SOLb  FAb
y volaremos
		     SOLb
en un globo que inventé
   SIb
solos

Estribillo:
REb	     DOb
Tirame otra vez
			      RE
que estoy volando en un globo
	      REb	      RE
si caigo morire
MI	     DOb
Tirame otra vez
			      RE
que estoy volando en un globo
si caigo moriré

SOLb	     SIb	   RIFT 1 x2
Acuerdate de mi por favor
SOLb	     SIb	   RIFT 1 x2
Acuerdate de mi por favor

-------SOLO PIANO-------
No lo vuelvo a hacer caí
y aprendi a volar por ti

     	      FAb	RE*  SOLb  FAb		       SOLb	   SIb
					y aprendi a volar por ti
     	      FAb	RE*  SOLb  FAb		       SOLb	   SIb
					y aprendi a volar por ti


Estribillo:
REb	     DOb
Tirame otra vez
			      RE
que estoy volando en un globo
	      REb	RE
si caigo moriré
MI	     DOb
Tirame otra vez
			      RE
que estoy volando en un globo
si caigo moriré

Outro:
				x3
Eb|-------------------------------------|--------------------------------------||
Bb|-------------------------------------|--------------------------------------||
Gb|-------------------------------------|--------------------------------------||
Db|--0-3-2-0----0-2-3-2-0----0-2-3-2-0--|--0-3-2-0----0-2-3-x-x-x-x------------||
Ab|--0-3-2-0----0-2-3-2-0----0-2-3-2-0--|--0-3-2-0----0-2-3-x-x-x-x------------||
Db|--0-3-2-0----0-2-3-2-0----0-2-3-2-0--|--0-3-2-0----0-2-3-x-x-x-x------------||
							   (raspa las cuerda
							    haciedo un sonido
							    como de wah wah) 
				x3
Eb|-------------------------------------|--------------------------------------||
Bb|-------------------------------------|--------------------------------------||
Gb|-------------------------------------|--------------------------------------||
Db|--0-3-2-0----0-2-3-2-0----0-2-3-2-0--|--0-3-2-0----0-2----------------------||
Ab|--0-3-2-0----0-2-3-2-0----0-2-3-2-0--|--0-3-2-0----0-2----------------------||
Db|--0-3-2-0----0-2-3-2-0----0-2-3-2-0--|--0-3-2-0----0-2----------------------||



RIFT 1
Eb|-------------------------------------||
Bb|-------------------------------------||
Gb|-------------------------------------||
Db|--0-3-2-0----0-2-3-2-0----0-2-3-2-0--||
Ab|--0-3-2-0----0-2-3-2-0----0-2-3-2-0--||
Db|--0-3-2-0----0-2-3-2-0----0-2-3-2-0--||


				       ACORDES
E|---------------------------------------------------------------------------||
B|---------------------------------------------------------------------------||
G|---------------------------------------------------------------------------||
D|-------3-------1-------5-------8-------7-------5-------8------10-----------||
A|-------3-------1-------5-------8-------7-------5-------8------10-----------||
E|-------3-------1-------5-------8-------5-------3-------6-------8-----------||

 





Comentarios del colaborador: la cuerda.net

Calificar esta versión:
Aviso: Este fichero es trabajo propio de su transcriptor y representa su interpretación personal de la canción. El material contenido en esta página es para exclusivo uso privado, por lo que se prohibe su reproducción o retransmisión, así como su uso para fines comerciales.
Más versiones de Globo, Cabezones
Globo
acordes
Globo (ver 2)
acordes
Descubre más canciones de Cabezones