Recuerdos En Mi Cajon, Bye Sami (tablatura) (ver 2)

Autor: terrones | 31085 visualizaciones



e----0---1p0----0---1p0--|
B--1--1-------1--1-------|
G--0---0------0---0------|
D--2----------2----------|
A--3----------3----------|
E--0----------0----------|

e----3---5--5--3--3-----------0---1p0----0---1p0----|
B------------------0--------1--1-----1-1--1-----1---|
G-------------------0-------2---2------2---2-----2--|
D--0--00--0--0--0-----------2----------2------------|
A--2--22--2--2--2-----------0----------0------------|
E--3--33--3--3--3-----------------------------------|

e----0---1p0----|-----------------------|
B--1--1-----1---|-----------------------|
G--0---0-----0--|-----------------------|
D--2------------|---33333333--55555555--|
A--2------------|---33333333--55555555--|
E---------------|---11111111--33333333--|

<<<<<<<>>>>>>>>


e----0---1p0----0---1p0--|
B--1--1-------1--1-------|
G--0---0------0---0------|
D--2----------2----------|
A--3----------3----------|
E--0----------0----------|

e----3---5--5--3--3-----------0---1p0----0---1p0----|
B------------------0--------1--1-----1-1--1-----1---|
G-------------------0-------2---2------2---2-----2--|
D--0--00--0--0--0-----------2----------2------------|
A--2--22--2--2--2-----------0----------0------------|
E--3--33--3--3--3-----------------------------------|

e----0---1p0----|-------------|
B--1--1-----1---|-------------|
G--0---0-----0--|-------------|
D--2------------|---33333333--|
A--2------------|---33333333--|
E---------------|---11111111--|
             La otra noche
e----0---1p0----0---1p0--|
B--1--1-------1--1-------|
G--0---0------0---0------|
D--2----------2----------|
A--3----------3----------|
E--0----------0----------|
   yo ...encontre en mi cajon      todas esas cartas que...
e----3---5--5--3--3-----------0---1p0----0---1p0----|
B------------------0--------1--1-----1-1--1-----1---|
G-------------------0-------2---2------2---2-----2--|
D--0--00--0--0--0-----------2----------2------------|
A--2--22--2--2--2-----------0----------0------------|
E--3--33--3--3--3-----------------------------------|
  tu me diste alguna vez
e----0---1p0----|
B--1--1-----1---|
G--0---0-----0--|
D--2------------|
A--2------------|
E---------------|
              en las que
e----0---1p0----0---1p0--|
B--1--1-------1--1-------|
G--0---0------0---0------|
D--2----------2----------|
A--3----------3----------|
E--0----------0----------|
   me decias cuanto me querias        y que nunca
e----3---5--5--3--3-----------0---1p0----0---1p0----|
B------------------0--------1--1-----1-1--1-----1---|
G-------------------0-------2---2------2---2-----2--|
D--0--00--0--0--0-----------2----------2------------|
A--2--22--2--2--2-----------0----------0------------|
E--3--33--3--3--3-----------------------------------|
  podrias tu vivir sin mi...
e----0---1p0----|
B--1--1-----1---|
G--0---0-----0--|
D--2------------|
A--2------------|
E---------------|


<<<<<<<>>>>>>>>
    Y ahora que paso,  ya todo termino   y solo  quedaron esos recuerdos
e-----------------------------------------------------------------|
B-----------------------------------------------------------------|
G-------------55555--55555555-------------------------------------|
D--33333333---55555--55555555--55555--55555555---77777--77777777--|
A--33333333---33333--33333333--55555--55555555---77777--77777777--|
E--11111111--------------------33333--33333333---55555--55555555--|
  en mi cajon... recuerdos en mi cajon y mi corazon
e---------------------------------------------------|
B---------------------------------------------------|
G-----------------------------------55555--55555555-|
D--33333333--555555555---33333333---55555--55555555-|
A--33333333--555555555---33333333---33333--33333333-|
E--11111111--333333333---11111111-------------------|
 aun  sigue esperando a que regreses hoy...
e-------------------------------------|
B-------------------------------------|
G-------------------------------------|
D--55555--5555555---77777--77777777---|
A--55555--5555555---77777--77777777---|
E--33333--3333333---55555--55555555---|


e----0---1p0----0---1p0--|
B--1--1-------1--1-------|
G--0---0------0---0------|
D--2----------2----------|
A--3----------3----------|
E--0----------0----------|

e----3---5--5--3--3-----------0---1p0----0---1p0----|
B------------------0--------1--1-----1-1--1-----1---|
G-------------------0-------2---2------2---2-----2--|
D--0--00--0--0--0-----------2----------2------------|
A--2--22--2--2--2-----------0----------0------------|
E--3--33--3--3--3-----------------------------------|

e----0---1p0----|
B--1--1-----1---|
G--0---0-----0--|
D--2------------|
A--2------------|
E---------------|


<<<<<<>>>>>


               llevo tantas
e----0---1p0----0---1p0--|
B--1--1-------1--1-------|
G--0---0------0---0------|
D--2----------2----------|
A--3----------3----------|
E--0----------0----------|
   noches  sin poder dormir            porque todo el
e----3---5--5--3--3-----------0---1p0----0---1p0----|
B------------------0--------1--1-----1-1--1-----1---|
G-------------------0-------2---2------2---2-----2--|
D--0--00--0--0--0-----------2----------2------------|
A--2--22--2--2--2-----------0----------0------------|
E--3--33--3--3--3-----------------------------------|
  tiempo yo solo pienso en ti...
e----0---1p0----|
B--1--1-----1---|
G--0---0-----0--|
D--2------------|
A--2------------|
E---------------|

             tu eres todo
e----0---1p0----0---1p0--|
B--1--1-------1--1-------|
G--0---0------0---0------|
D--2----------2----------|
A--3----------3----------|
E--0----------0----------|
   para mi  y mi vida entera          te entregaria
e----3---5--5--3--3-----------0---1p0----0---1p0----|
B------------------0--------1--1-----1-1--1-----1---|
G-------------------0-------2---2------2---2-----2--|
D--0--00--0--0--0-----------2----------2------------|
A--2--22--2--2--2-----------0----------0------------|
E--3--33--3--3--3-----------------------------------|
      yo a ti...
e----0---1p0----|
B--1--1-----1---|
G--0---0-----0--|
D--2------------|
A--2------------|
E---------------|





Calificar esta versión:
Aviso: Este fichero es trabajo propio de su transcriptor y representa su interpretación personal de la canción. El material contenido en esta página es para exclusivo uso privado, por lo que se prohibe su reproducción o retransmisión, así como su uso para fines comerciales.
Más versiones de Recuerdos En Mi Cajon, Bye Sami
Recuerdos En Mi Cajon
acordes
Recuerdos En Mi Cajón
tablatura
Recuerdos En Mi Cajon (ver 2)
tablatura
Descubre más canciones de Bye Sami