Waking The Demon, Bullet For My Valentine (tablatura)

Autor: thrasher18 | 29599 visualizaciones

Intro

Guitar 1
D|-----------------------------------------------------------------------|
A|-----------------------------------------------------------------------|
F|-----------------------------------------------------------------------|
C|-----------------------------------------------------------------------|
G|----------5p4-----7p4----------------------5p4-----7p4-----------------|
C|--4-4-4-4-----4-4-----4-4-5p4h7p4--4-4-4-4-----4-4-----4-4-5---7-------|
PM  . . . .     . .     . .          . . . .     . .     . .             |
|Guitar 2 (Don't let ring)                                               |
D|-----------------------------------------------------------------------|
A|-----------------------------------------------------------------------|
F|-----------------------------------------------------------------------|
C|--4--------------------------------4-----------------------5---7-------|
G|--4--------------------------------4-----------------------5---7-------|
C|--4--------------------------------4-----------------------5---7-------|


Guitar 1
D|-----------------------------------------------------------------------|
A|-----------------------------------------------------------------------|
F|-----------------------------------------------------------------------|
C|---------------------------------------------------7p4-5p4-------------|
G|----------5p4-----7p4----------------------5p4-------------7p4-5p4-----|
C|--4-4-4-4-----4-4-----4-4-5p4h7p4--4-4-4-4-----4-4---------------------|
PM  . . . .     . .     . .          . . . .     . .                     |
|Guitar 2 (Don't let ring)                                               |
D|-----------------------------------------------------------------------|
A|-----------------------------------------------------------------------|
F|-----------------------------------------------------------------------|
C|--4--------------------------------4---------------4-------------------|
G|--4--------------------------------4---------------4-------------------|
C|--4--------------------------------4---------------4-------------------|

Guitar 1
D|-----------------------------------------------------------------------|
A|-----------------------------------------------------------------------|
F|-----------------------------------------------------------------------|
C|-----------------------------------------------------------------------|
G|----------5p4-----7p4----------------------5p4-----7p4-----------------|
C|--4-4-4-4-----4-4-----4-4-5p4h7p4--4-4-4-4-----4-4-----4-4-5---7-------|
PM  . . . .     . .     . .          . . . .     . .     . .             |
|Guitar 2 (Let ring all the way)                                         |
D|-----------------------------------------------------------------------|
A|-----------------------------------------------------------------------|
F|-----------------------------------------------------------------------|
C|--4--------------------------------------------------------------------|
G|--4--------------------------------------------------------------------|
C|--4--------------------------------------------------------------------|


Guitar 1
D|-----------------------------------------------------------------------|
A|-----------------------------------------------------------------------|
F|-----------------------------------------------------------------------|
C|---------------------------------------------------7p4-5p4-------------|
G|----------5p4-----7p4----------------------5p4-------------7p4-5p4-----|
C|--4-4-4-4-----4-4-----4-4-5p4h7p4--4-4-4-4-----4-4---------------------|
PM  . . . .     . .     . .          . . . .     . .                     |
|Guitar 2 (Don't let ring)                                               |
D|-----------------------------------------------------------------------|
A|-----------------------------------------------------------------------|
F|-----------------------------------------------------------------------|
C|-(4)-------------------------------------------------------------------|
G|-(4)-------------------------------------------------------------------|
C|-(4)-------------------------------------------------------------------|

Both Guitar
D|-----------------------------------------------------------------------|
A|-----------------------------------------------------------------------|
F|-----------------------------------------------------------------------|
C|-----------------------------------------------------------------------|
G|----------5p4-----7p4----------------------5p4-----7p4-----------------|
C|--4-4-4-4-----4-4-----4-4-5p4h7p4--4-4-4-4-----4-4-----4-4-5---7-------|
PM  . . . .     . .     . .          . . . .     . .     . .

Both Guitar
D|-----------------------------------------------------------------------|
A|-----------------------------------------------------------------------|
F|-----------------------------------------------------------------------|
C|---------------------------------------------------7p4-5p4-------------|
G|----------5p4-----7p4----------------------5p4-------------7p4-5p4-----|
C|--4-4-4-4-----4-4-----4-4-5p4h7p4--4-4-4-4-----4-4---------------------|
PM  . . . .     . .     . .          . . . .     . .
Repeat those 2 line 3 time then both Guitar go:
         ''Two three four..''
D|-------------------------------------------------------------------------|
A|-------------------------------------------------------------------------|
F|--Let ring and make it hard----------------------------------------------|
C|--0--------------------------------------7p4-5p4---------9p6-7p6---------|
G|--0----------------------------------------------7p4-5p4---------9p6-7p6-|
C|--0----------------------------------------------------------------------|


>>>>>>>>>Verse<<<<<<<<<
Both Guitar
''Helpless!''                      ''My eyes are bleeding from..
D|-----------------------------------------------------------------------|
A|-----------------------------------------------------------------------|
F|-----------------------------------------------------------------------|
C|-----------------------------------------------------------------------|
G|----------5p4-----7p4----------------------5p4-----7p4-----------------|
C|--4-4-4-4-----4-4-----4-4-5p4h7p4--4-4-4-4-----4-4-----4-4-5---7-------|
PM  . . . .     . .     . .          . . . .     . .     . .

Both Guitar
..fear that's inside''             ''You sealed your demise when you..
D|-----------------------------------------------------------------------|
A|-----------------------------------------------------------------------|
F|-----------------------------------------------------------------------|
C|---------------------------------------------------7p4-5p4-------------|
G|----------5p4-----7p4----------------------5p4-------------7p4-5p4-----|
C|--4-4-4-4-----4-4-----4-4-5p4h7p4--4-4-4-4-----4-4---------------------|
PM  . . . .     . .     . .          . . . .     . .


Both Guitar
..took what was mine!''                  ''Don't try and stop me from..
D|-----------------------------------------------------------------------|
A|-----------------------------------------------------------------------|
F|-----------------------------------------------------------------------|
C|-----------------------------------------------------------------------|
G|----------5p4-----7p4----------------------5p4-----7p4-----------------|
C|--4-4-4-4-----4-4-----4-4-5p4h7p4--4-4-4-4-----4-4-----4-4-5---7-------|
PM  . . . .     . .     . .          . . . .     . .     . .

Both Guitar
..avenging this world''                      ''No voice to be heard''
D|-----------------------------------------------------------------------|
A|-----------------------------------------------------------------------|
F|-----------------------------------------------------------------------|
C|---------------------------------------------------7p4-5p4-------------|
G|----------5p4-----7p4----------------------5p4-------------7p4-5p4-----|
C|--4-4-4-4-----4-4-----4-4-5p4h7p4--4-4-4-4-----4-4---------------------|
PM  . . . .     . .     . .          . . . .     . .


>>>>>>>>Chorus<<<<<<<<
Both Guitars
   ''Waking the demon!''                           ''Where d'ya run to''
D|-----------------------------------------------------------------------|
A|-----------------------------------------------------------------------|
F|-----------------------------------------------------------------------|
C|------------------------------------------------------0---2------------|
G|--5p4----------5p4----------4-4-4-4------5p4----------0---2------------|
C|------7p4----------7p4------4-4-4-4----------7p4------0---2------------|
PM                            . . . .

Both Guitars                                          |Gtr 1 | Gtr 2    !
d|-----------------------------------------------------|------|----------|
A|-----------------------------------------------------|------|----------|
F|-----------------------------------------------------|------|----------|
C|-----------------------------------------------------|------|----------|
G|--5p4----------5p4----------4-4-4-4------5p4---------|-7--6-|--11--9---|
C|------7p4----------7p4------4-4-4-4----------7p4-----|------|----------|
PM                            . . . .


Both Guitars
   ''Walking in shadows!''                           ''Watch the blood..
D|-----------------------------------------------------------------------|
A|-----------------------------------------------------------------------|
F|-----------------------------------------------------------------------|
C|------------------------------------------------------0---2------------|
G|--5p4----------5p4----------4-4-4-4------5p4----------0---2------------|
C|------7p4----------7p4------4-4-4-4----------7p4------0---2------------|
PM                            . . . .

Both Guitars
 ..flow''                                             |Gtr 1 | Gtr 2    |
D|-----------------------------------------------------|------|----------|
A|-----------------------------------------------------|------|----------|
F|-----------------------------------------------------|------|----------|
C|-----------------------------------------------------|------|----------|
G|--5p4----------5p4----------4-4-4-4------5p4---------|-7--6-|--11--9---|
C|------7p4----------7p4------4-4-4-4----------7p4-----|------|----------|
PM                            . . . .

Both Guitars
''There's not much longer so don't try and fight''
                                ''Your bodies weakening, walk to the light''
D|-----------------------------------------------------------------------|
A|-----------------------------------------------------------------------|
F|-----------------------------------------------------------------------|
C|--000000000000000022222222--------4444444444444444/7777777766664444----|
G|--------------------------44444444-------------------------------------|
C|-----------------------------------------------------------------------|

Both Guitars
''Those painful times so alone so ashamed''
                           ''I'm not coming back! There's nothing to gain!''
                                                         | Guitar 2     |
D|--------------------------------------------------------|--------------|
A|--------------------------------------------------------|--------------|
F|--------------------------------------------------------|--------------|
C|--000000000000000022222222--------4444444444444444\-----|--------------|
G|--------------------------44444444----------------------|--0-----------|
C|--------------------------------------------------------|--0--<4>------|
PM                                                           .

>>>>>>>>>Verse<<<<<<<<<

Both Guitars
''Caution!''                         ''There's just no limits to the..
D|-----------------------------------------------------------------------|
A|-----------------------------------------------------------------------|
F|-----------------------------------------------------------------------|
C|-----------------------------------------------------------------------|
G|----------5p4-----7p4----------------------5p4-----7p4-----------------|
C|--4-4-4-4-----4-4-----4-4-5p4h7p4--4-4-4-4-----4-4-----4-4-5---7-------|
PM  . . . .     . .     . .          . . . .     . .     . .

Both Guitars
..boundaries you push''            ''I've warned you but still you just..
D|-----------------------------------------------------------------------|
A|-----------------------------------------------------------------------|
F|-----------------------------------------------------------------------|
C|---------------------------------------------------7p4-5p4-------------|
G|----------5p4-----7p4----------------------5p4-------------7p4-5p4-----|
C|--4-4-4-4-----4-4-----4-4-5p4h7p4--4-4-4-4-----4-4---------------------|
PM  . . . .     . .     . .          . . . .     . .


Both Guitars
..f*** with my mind!''                       ''There's no escape from..
D|-----------------------------------------------------------------------|
A|-----------------------------------------------------------------------|
F|-----------------------------------------------------------------------|
C|-----------------------------------------------------------------------|
G|----------5p4-----7p4----------------------5p4-----7p4-----------------|
C|--4-4-4-4-----4-4-----4-4-5p4h7p4--4-4-4-4-----4-4-----4-4-5---7-------|
PM  . . . .     . .     . .          . . . .     . .     . .

Both Guitars
..this rage that I feel''                        ''Nothing is real!''
D|-----------------------------------------------------------------------|
A|-----------------------------------------------------------------------|
F|-----------------------------------------------------------------------|
C|---------------------------------------------------7p4-5p4-------------|
G|----------5p4-----7p4----------------------5p4-------------7p4-5p4-----|
C|--4-4-4-4-----4-4-----4-4-5p4h7p4--4-4-4-4-----4-4---------------------|
PM  . . . .     . .     . .          . . . .     . .

>>>>>>>>Chorus<<<<<<<<

Both Guitars
   ''Waking the demon!''                           ''Where d'ya run to''
D|-----------------------------------------------------------------------|
A|-----------------------------------------------------------------------|
F|-----------------------------------------------------------------------|
C|------------------------------------------------------0---2------------|
G|--5p4----------5p4----------4-4-4-4------5p4----------0---2------------|
C|------7p4----------7p4------4-4-4-4----------7p4------0---2------------|
PM                            . . . .

Both Guitars                                           |Gtr 1 | Gtr 2    !
D|-----------------------------------------------------|------|----------|
A|-----------------------------------------------------|------|----------|
F|-----------------------------------------------------|------|----------|
C|-----------------------------------------------------|------|----------|
G|--5p4----------5p4----------4-4-4-4------5p4---------|-7--6-|--11--9---|
C|------7p4----------7p4------4-4-4-4----------7p4-----|------|----------|
PM                            . . . .


Both Guitars
   ''Walking in shadows!''                           ''Watch the blood..
D|-----------------------------------------------------------------------|
A|-----------------------------------------------------------------------|
F|-----------------------------------------------------------------------|
C|------------------------------------------------------0---2------------|
G|--5p4----------5p4----------4-4-4-4------5p4----------0---2------------|
C|------7p4----------7p4------4-4-4-4----------7p4------0---2------------|
PM                            . . . .

Both Guitars
 ..flow''                                              |Gtr 1 | Gtr 2    |
D|-----------------------------------------------------|------|----------|
A|-----------------------------------------------------|------|----------|
F|-----------------------------------------------------|------|----------|
C|-----------------------------------------------------|------|----------|
G|--5p4----------5p4----------4-4-4-4------5p4---------|-7--6-|--11--9---|
C|------7p4----------7p4------4-4-4-4----------7p4-----|------|----------|
PM                            . . . .


Both Guitars
''There's not much longer so don't try and fight''
                                ''Your bodies weakening, walk to the light''
D|-----------------------------------------------------------------------|
A|-----------------------------------------------------------------------|
F|-----------------------------------------------------------------------|
C|--000000000000000022222222--------4444444444444444/7777777766664444----|
G|--------------------------44444444-------------------------------------|
C|-----------------------------------------------------------------------|

Both Guitars
''Those painful times so alone so ashamed''
                           ''I'm not coming back! There's nothing to gain!''
D|-----------------------------------------------------------------------|
A|-----------------------------------------------------------------------|
F|-----------------------------------------------------------------------|
C|--000000000000000022222222--------4444444444444444---------------------|
G|--------------------------44444444------------------\\\\\\\\\\\\\\\----|
C|----------------------------------------------------\\\\\\\\\\\\\\\----|
For the pick scrapping Guitar 1 do it on the C string and Guitar 2 on the G string.

>>>>>>>>Some kind of interlude<<<<<<<<

Guitar 1
 ''Breathe for me!               ...Don't wake me from this slumber''
D|-----------------------------------------------------------------------|
A|---/10-9---9------/10-9---9-------/10-9---10---12---10---9---10--------|
F|---------9---9----------9---11----------9----9----9----9---9----9------|
C|-----------------------------------------------------------------------|
G|-----------------------------------------------------------------------|
C|-----------------------------------------------------------------------|
Guitar 3                                                                 |
D|-----------------------------------------------------------------------|
A|-----------------------------------------------------------------------|
F|-----------------------------------------------------------------------|
C|--0---0-0---0-2---2-2---2-4---4-4---4-4---4-4---4----------------------|
G|--0---0-0---0-2---2-2---2-4---4-4---4-4---4-4---4----------------------|
C|--0---0-0---0-2---2-2---2-4---4-4---4-4---4-4---4----------------------|


Guitar 1
 ''Stay with me!                         ...Possession taking over''
D|-----------------------------------------------------------------------|
A|---/10-9---9------/10-9---9-------/10-9---10---12---10---9---10--------|
F|---------9---9----------9---11----------9----9----9----9---9---<9>-----|
C|-----------------------------------------------------------------------|
G|-----------------------------------------------------------------------|
C|-----------------------------------------------------------------------|
Guitar 3                                                                 |
D|-----------------------------------------------------------------------|
A|-----------------------------------------------------------------------|
F|-----------------------------------------------------------------------|
C|--0---0-0---0-2---2-2---2-4---4-4---4-4---4-4---4----------------------|
G|--0---0-0---0-2---2-2---2-4---4-4---4-4---4-4---4----------------------|
C|--0---0-0---0-2---2-2---2-4---4-4---4-4---4-4---4----------------------|


Guitar 1
 ''Breathe for me!               ...Don't wake me from this slumber''
D|-----------------------------------------------------------------------|
A|---/10-9--9------/10-9---9-------/10-9---10---12---10---9---10---------|
F|---------9--9----------9---11----------9----9----9----9---9----9-------|
C|-----------------------------------------------------------------------|
G|-----------------------------------------------------------------------|
C|-----------------------------------------------------------------------|
Guitar 2                                                                 |
D|-----------------------------------------------------------------------|
A|---/14-13--13----/14-13--13-----/14-13---14---16---14---13---14--------|
F|---------13--12--------13--14----------13---13---13---13---13---13-----|
C|-----------------------------------------------------------------------|
G|-----------------------------------------------------------------------|
C|-----------------------------------------------------------------------|
Guitar 3                                                                 |
D|-----------------------------------------------------------------------|
A|-----------------------------------------------------------------------|
F|-----------------------------------------------------------------------|
C|--0----0-0----0-2----2-2----2-4----4-4----4-4----4-4----4--------------|
G|--0----0-0----0-2----2-2----2-4----4-4----4-4----4-4----4--------------|
C|--0----0-0----0-2----2-2----2-4----4-4----4-4----4-4----4--------------|


Guitar 1
 ''Stay with me!                       ...Possession taking over''
D|-----------------------------------------------------------------------|
A|---/10-9--9------/10-9---9-------/10-9---10---12---10---9---10---------|
F|---------9--9----------9---11----------9----9----9----9---9----9-------|
C|-----------------------------------------------------------------------|
G|-----------------------------------------------------------------------|
C|-----------------------------------------------------------------------|
Guitar 2                                                                 |
D|-----------------------------------------------------------------------|
A|---/14-13--13----/14-13--13-----/14-13---14---16---14---13---14--------|
F|---------13--12--------13--14----------13---13---13---13---13---13-----|
C|-----------------------------------------------------------------------|
G|-----------------------------------------------------------------------|
C|-----------------------------------------------------------------------|
Guitar 3                                                                 |
D|-----------------------------------------------------------------------|
A|-----------------------------------------------------------------------|
F|-----------------------------------------------------------------------|
C|--0----0-0----0-2----2-2----2-4----4-4----4-4----4-4----4--------------|
G|--0----0-0----0-2----2-2----2-4----4-4----4-4----4-4----4--------------|
C|--0----0-0----0-2----2-2----2-4----4-4----4-4----4-4----4--------------|


>>>>>>>>Before the solo<<<<<<<<

Both Guitars
D|-----------------------------------------------------------------------|
A|-----------------------------------------------------------------------|
F|-----------------------------------------------------------------------|
C|-----------------------------------------------------------------------|
G|--4---44444---44444---44444---4444-------------------------------------|
C|--4---44444---44444---44444---4444-------------------------------------|
PM  .   .....   .....   .....   ....

Both Guitars
D|-----------------------------------------------------------------------|
A|-----------------------------------------------------------------------|
F|-----------------------------------------------------------------------|
C|--Here it is a little bit more clear>5-4-4-4-4-4-5-4-4-4-4-4-5-4-7-4-5-|
G|--544444544444547454444454444454745444445444445474544444544------------|
C|--544444544444547454444454444454745444445444445474544444544------------|
PM  .....................as they go they gradually stop palm muting...

>>>>>>>>Solo<<<<<<<<

During all the solo the guitar 1 plays just like the verse.

D|-------------18b19--------17-21-16-17-16---------------------------------|
A|-17b19r17-14-----------------------------17------------------------------|
F|--------------------------------------------16---------------------------|
C|-------------------------------------------------------------------------|
G|-------------------------------------------------------------------------|
C|-------------------------------------------------------------------------|

D|----------------------------------------------------------------19b21-19-|
A|-/9-5-7-9-10-7-9-10-12-9-10-12-14-10-12-14-15-12-14-15-17-15-17----------|
F|-------------------------------------------------------------------------|
C|-------------------------------------------------------------------------|
G|-------------------------------------------------------------------------|
C|-------------------------------------------------------------------------|

D|--17-19-17-16-17-16-14-16-----------17p14-x8-----16p13-x8----------------|
A|--------------------------14~--------t------------t----------------------|
F|-------------------------------------------------------------------------|
C|-------------------------------------------------------------------------|
G|-------------------------------------------------------------------------|
C|-------------------------------------------------------------------------|
                                                         /
D|------------------------------------------------------/------------------|
A|-----------------------------------------------------/--Make it high-----|
F|--19-18-16-18-16-14-16-14-13-14-13-11-13-11-9\------/--------------------|
C|----------------------------------------------\----/---------------------|
G|-----------------------------------------------\--/-Tremolo--------------|
C|------------------------------------------------\/-----------------------|


>>>>>>>>Harmonic x2<<<<<<<<

Guitar 1
D|-9-5---5-9-5-9-5---5-9-5-9-5---5-7-4---4-7-4-7-4---4-7-4-7-4---4---------|
a|-----7-----------7-----------7-------5-----------5-----------5-----------|
F|-------------------------------------------------------------------------|
C|-------------------------------------------------------------------------|
G|-------------------------------------------------------------------------|
C|-------------------------------------------------------------------------|
Guitar 2                                                                   |
D|-12-9--9-12-9-12-9--9-12-9-12-9--9-10-7---7-10-7-10-7---7-10-7-10-7---7--|
A|-----10-----------10-----------10-------9-------------9-------------9----|
F|-------------------------------------------------------------------------|
C|-------------------------------------------------------------------------|
G|-------------------------------------------------------------------------|
c|-------------------------------------------------------------------------|

Then replay ''Some kind of interlude'' with the pick scrapping at the begining.

>>>>>>>>Outro<<<<<<<<

Guitar 1
D|-----------------------------------------------------------------------|
A|-----------------------------------------------------------------------|
f|-----------------------------------------------------------------------|
C|-----------------------------------------------------------------------|
G|----------5p4-----7p4----------------------5p4-----7p4-----------------|
C|--4-4-4-4-----4-4-----4-4-5p4h7p4--4-4-4-4-----4-4-----4-4-5---7-------|
PM  . . . .     . .     . .          . . . .     . .     . .             |
|Guitar 2 (Don't let ring)                                               |
D|-----------------------------------------------------------------------|
A|-----------------------------------------------------------------------|
F|-----------------------------------------------------------------------|
C|--4--------------------------------4-----------------------5---7-------|
G|--4--------------------------------4-----------------------5---7-------|
C|--4--------------------------------4-----------------------5---7-------|

Both Guitar
D|-----------------------------------------------------------------------|
A|-----------------------------------------------------------------------|
F|-----------------------------------------------------------------------|
C|-----------------------------------------------------------------------|
G|----------5p4-----7p4----------------------5p4-------------------------|
C|--4-4-4-4-----4-4-----4-4-5p4h7p4--4-4-4-4-----4-4---------------------|
PM  . . . .     . .     . .          . . . .     . .

D|-----------------------------------------------------------------------|
A|-----------------------------------------------------------------------|
F|-----------------------------------------------------------------------|
C|--7p4-5p4---------9p6-9p6----------4------4----------------------------|
G|----------7p4-5p4---------9p6-9p6--4---4444----------------------------|
C|-----------------------------------4---4444----------------------------|
PM                                       ...
Calificar esta versión:
Aviso: Este fichero es trabajo propio de su transcriptor y representa su interpretación personal de la canción. El material contenido en esta página es para exclusivo uso privado, por lo que se prohibe su reproducción o retransmisión, así como su uso para fines comerciales.
Más versiones de Waking The Demon, Bullet For My Valentine
Waking The Demon
tablatura
Waking The Demon (ver 2)
tablatura
Descubre más canciones de Bullet For My Valentine