The Poison, Bullet For My Valentine (tablatura)

Autor: AGUS GP | 19366 visualizaciones


Bullet For my Valentine - The Poison

Tab por: Agustin Ibarra (Argentina)

Viva el buen Metal!!!!!! 


INTRO

      
E||--------------------------|-----------------------------|G
B||--------------------------|-----------------------------|U
G||--------------------------|-----------------------------|I
D||--0--3--7--0--3--8--0--3--|--7--0--3--8--0--3s--12------|T
A||--------------------------|-----------------------------|.
D||--------------------------|-----------------------------|1


    
--------------------------|-----------------------------|G
--------------------------|-----------------------------|U
--------------------------|-----------------------------|I
--0--3--7--0--3--8--0--3--|--7--0--3--8--0--3-s-12------|T
--------------------------|-----------------------------|.
--------------------------|-----------------------------|1


  
--------------------------|-----------------------------|G
--------------------------|-----------------------------|U
--------------------------|-----------------------------|I
--0--3--7--0--3--8--0--3--|--7--0--3--8--0--3s--12------|T
--------------------------|-----------------------------|.
--------------------------|-----------------------------|1

 
--------------------------|-----------------------|G
--------------------------|-----------------------|U
--------------------------|-----------------------|I
--0--3--7--0--3--8--0--3--|--8--7--5-----7--------|T
--------------------------|-----------8-----8--5--|.
--------------------------|-----------------------|1

(La otra Guitarra deja sonar un D)

Y en el punteo hace:

E|-----------------------|G
B|-----------------------|U
G|-----------------------|I
D|--5--------------------|T
A|-----8--7--5--8--7--5--|.
E|-----------------------|2

ESTROFA

E|--------------------------|G
B|--------------------------|U
G|*--3----------------------|I
D|*--3----3--3--3--3--3--3--|T
A|---1----1--1--1--1--1--1--|.
E|--------------------------|1

  
E|------------------------|----------------------|-----------------------|G
B|------------------------|----------------------|-----------------------|U
G|------------------------|----------------------|-----------------------|I
D|--3---------------------|--7----7----7----7----|--8--7--5-----7--------|T
A|--3----3--3--7----7--7--|--5----5----5----5----|-----------8-----8--5--|.
E|--3----3--3--7----7--7--|--0----0----0----0----|-----------------------|1


    V     E    B      M                         E|-----------------------|G
      I     L     U      E                      B|-----------------------|U
        V           E      T                    G|-----------------------|I
          A            N      A                 D|--5--------------------|T
                                L !!!!          A|-----8--7--5--8--7--5--|.
                                                E|-----------------------|2          



-------------------------|--------------------------|--------------------|G
-------------------------|--------------------------|--------------------|U
--2----2--2--2--2--2--3--|-----3--3--0-----0--0--0--|-----2--------------|I 
-------------------------|--------------------------|--------------------|T
-------------------------|--------------------------|--------------------|.
-------------------------|--------------------------|--------------------|1


-------------------------|G
-------------------------|U
-------------------------|I
--3----3--3--3--3--3--5--|T
-------------------------|.
-------------------------|2


--------------------------|----------------------|-----------------------|G
--------------------------|----------------------|-----------------------|U
--------------------------|----------------------|-----------------------|I
-----5--5--2-----2--2--2--|--L--3----------------|--5--------------------|T
--------------------------|----------------------|-----8--7--5--8--7--3--|.
--------------------------|----------------------|-----------------------|2



ESTRIBILLO

---------------------|-------------------------|-------------------------|
---------------------|-------------------------|-------------------------|
---------------------|--3----------------------|-------------------------|
--7----7-------------|--3----3--3--3--3--3--3--|--3----------------------|
--5----5----5--5--5--|--1----1--1--1--1--1--1--|--3----3--3--3--3--3--3--|
--0----0----0--0--0--|-------------------------|--1----1--1--1--1--1--1--|

   
----------------------|------------------------|-------------------------|
----------------------|------------------------|-------------------------|
----------------------|------------------------|--3----------------------|
--3----3----5----5----|--7----7----------------|--3----3--3--3--3--3--3--|
--1----1----3----3----|--5----5----5--5--5--5--|--1----1--1--1--1--1--1--|
----------------------|--0----0----0--0--0--0--|-------------------------|

    
-------------------------|----------------------|----------------------|
-------------------------|----------------------|----------------------|
-------------------------|----------------------|--7----7----7----7----|
--3----------------------|--3----3----5----5----|--7----7----7----7----|
--3----3--3--3--3--3--3--|--1----1----3----3----|--5----5----5----5----|
--1----1--1--1--1--1--1--|----------------------|----------------------|


|-----------------------|
|-----------------------|
|-----------------------|
|--8--7--5-----7--------|
|-----------8-----8--5--|
|-----------------------|


SOLO

  
 E|----------10----------8----------|
 B|---------------------------------|
 G|--9p--10------9p--10-----9p--10--|
 D|---------------------------------|
 A|---------------------------------|
 E|---------------------------------|


     
  --10----------12----------13-------|
  -----------------------------------|
  ------9p--10------9p--10------12b--|
  -----------------------------------|
  -----------------------------------|
  -----------------------------------|

  
  -----------------------------------------------|
  -----10----------------------------------------|
  --------12-10----12-10----10-------------------|
  --------------12-------12----12-10----12-10----|
  -----------------------------------12-------12-|
  -----------------------------------------------|

   
  --------------------------------|
  --------------------------------|
  --------------------------------|
  --10-12-10----------------------|
  -----------12-10----------------|
  -----------------10~------------|

  
  --13--10------10----------13--10------10----------|
  ----------13------13--10----------13------13--10--|
  --------------------------------------------------|
  --------------------------------------------------|
  --------------------------------------------------|
  --------------------------------------------------|

  
  --13--10------10----------13--10------10----------|
  ----------13------13--10----------13------13--10--|
  --------------------------------------------------|
  --------------------------------------------------|
  --------------------------------------------------|
  --------------------------------------------------|

  
  --13--10------10----------------------------------|
  ----------13------13--10--13--10------10----------|
  ----------------------------------12------12--10--|
  --------------------------------------------------|
  --------------------------------------------------|
  --------------------------------------------------|

 
  -------------------------------------|--10----13--12--10--12--13--10--|
  -------------------------------------|--------------------------------|
  --12--10------10----------12~--------|--------------------------------|
  ----------12------12--10-------------|--------------------------------|
  -------------------------------------|--------------------------------|
  -------------------------------------|--------------------------------|

                                                (Arpeggio de D)
                                             
  --12--13--12--13--15~--17~------|--17~----13h17p13------------------|
  --------------------------------|-------------------15--------------|
  --------------------------------|-----------------------14------14--|
  --------------------------------|---------------------------15------|
  --------------------------------|-----------------------------------|
  --------------------------------|-----------------------------------|

                                     cwah                 
        
  ------17--13-17-13---------------|--10---------12---------|
  --15----------------15-----------|--13b--------15b--------|
  ------------------------14~------|------------------------|
  ---------------------------------|------------------------|
  ---------------------------------|------------------------|
  ---------------------------------|------------------------|

   
  --13---------15---------|---------17-20-17--------17-20-17------|
  --16b--------18b--------|--20b-------------20b-------------20b--|
  ------------------------|---------------------------------------|
  ------------------------|---------------------------------------|
  ------------------------|---------------------------------------|
  ------------------------|---------------------------------------|

          
  -----17-20-17-20b--------||
  -------------------------||
  -------------------------||
  -------------------------||
  -------------------------||
  -------------------------||

  PARTE FUERTE DESPUES DEL SOLO:

 E|---------------------------------------------------------------|
 B|---------------------------------------------------------------|
 G|---------------------------------------------------------------|
 D|-777777-7--777777-7----777777-7--777777-7-----8--8--8--8-------|
 A|-555555-5--555555-5----555555-5--555555-5-----6--6--6--6-------|
 E|-000000-0--000000-0----000000-0--000000-0----------------------|

 E|-----------------------------------------------------------------------------------|
 B|-----------------------------------------------------------------------------------|
 G|-----------------------------------------------------------------------------------|
 D|-0-0-0-0-0--0-0-0-0-0--0-0-0--1-1-1-1-1-1--1-1-1-1-1-1--1-1-1--3-3-3-3-3-3-3-3-3-3-|
 A|-0-0-0-0-0--0-0-0-0-0--0-0-0--1-1-1-1-1-1--1-1-1-1-1-1--1-1-1--3-3-3-3-3-3-3-3-3-3-|
 E|-0-0-0-0-0--0-0-0-0-0--0-0-0--1-1-1-1-1-1--1-1-1-1-1-1--1-1-1--3-3-3-3-3-3-3-3-3-3-|

    P.M . . . . . . .
 E|--------------------|
 B|--------------------|
 G|--------------------|
 D|--------------------|
 A|-10-8-6-5-10-8-6-5--|


 No aplaudan, por favor!

Comentarios del colaborador: no aplaudan, por favor!

Calificar esta versión:
Aviso: Este fichero es trabajo propio de su transcriptor y representa su interpretación personal de la canción. El material contenido en esta página es para exclusivo uso privado, por lo que se prohibe su reproducción o retransmisión, así como su uso para fines comerciales.
Más versiones de The Poison, Bullet For My Valentine
The Poison
tablatura
The Poison (ver 2)
tablatura
Descubre más canciones de Bullet For My Valentine